PrimaNota.ru - самый крупный в мире бесплатный архив песенных текстов, аккордов, табулатур и нот


Biffy Clyro - Paperfriend - таба, видео

Регистрация Запомнить меня
Войти через:  Facebook Google Twitter Vk Yandex Mail.ru

Biffy Clyro - Paperfriend - таба, видео

Печатать
Просмотров: 117
Intro
E|-----------------------------|
B|-----------------------------|
G|---13--13--12--12--0---0-----|
D|---10--10--10--10--10--10----|
A|-----------------------------|
D|-----------------------------|

Verse
E|------------------------------------------------------------|
B|------------------------------------------------------------|
G|---13--13--12--12--0---0---12--12--13--13--10--10-----------|
D|---10--10--10--10--10--10--10--10--10--10--10--10--12--12---|
A|---------------------------------------------------13--13---|
D|------------------------------------------------------------|

E|------------------------------------------------------------|
B|---------------------------------------------------10--10---|
G|---13--13--12--12--0---0---12--12--13--13--10--10--12--12---|
D|---10--10--10--10--10--10--10--10--10--10--10--10-----------|
A|------------------------------------------------------------|
D|------------------------------------------------------------|

E|------------------------------------------------------------|
B|------------------------------------------------------------|
G|---13--13--12--12--0---0---12--12--13--13--10--10-----------|
D|---10--10--10--10--10--10--10--10--10--10--10--10--12--12---|
A|---------------------------------------------------13--13---|
D|------------------------------------------------------------|

E|----------------------------------------------------------------|
B|----------------------------------------------------------------|
G|---13--13--12--12--0---0---13--13--12--12--0---0---13--12--0----|
D|---10--10--10--10--10--10--10--10--10--10--10--10--10--10--10---|
A|----------------------------------------------------------------|
D|----------------------------------------------------------------|

Verse Break
E|----------------|
B|----------------|
G|---15b17b15-----|
D|----------------|
A|----------------|
D|----------------|

Pre-Chorus
E|-------------|-------------|-----------|--------------------|
B|----------8--|----------8--|--------8--|----------9p8-------|
G|-----8-------|-----8-------|----7------|-----8--------8-----|
D|-------10----|-------10----|--8---8----|--10---10-------10--|
A|--11---------|--11---------|-----------|--------------------|
D|-------------|-------------|-----------|--------------------|

E|-------------|-------------|---------------------------------|
B|----------8--|----------8--|--------8-----8-----8-----8------|
G|-----8-------|-----8-------|----7-----7-----7-----7-----7----|
D|-------10----|-------10----|--8---8-----8-----8-----8-----8--|
A|--11---------|--11---------|---------------------------------|
D|-------------|-------------|---------------------------------|

Chorus x2 (rhythm easy to work out)
E|-----10------|-------------|-----10------|------------|
B|-----11------|-----11------|-----11------|-----11-----|
G|-----10------|-----8-------|-----10------|-----8------|
D|-----12------|-----8-------|-----12------|-----8------|
A|-------------|-----10------|-------------|-----10-----|
D|-------------|-------------|-------------|------------|
                                            First Time      Second Time
E|-----8-------|-------------|-----8-------|-----------|    ----10----|
B|-----9-------|-----11------|-----9-------|-----11----|    ----11----|
G|-----8-------|-----8-------|-----8-------|-----8-----|    ----10----|
D|-----10------|-----8-------|-----10------|-----8-----|    ----12----|
A|-------------|-----10------|-------------|-----10----|    ----------|
D|-------------|-------------|-------------|-----------|    ----------|

Into Break
E|--------------------|
B|--------------------|
G|----3b5b3b5b3b5b3---|
D|--------------------|
A|--------------------|
D|--------------------|

Break
E|---------------------------------------------------------------------|
B|---------------------------------------------------------------------|
G|---------------------------------------------------------------------|
D|--3-5-5-3-5--1-1-3-3-5-5-3-3-1-1--3-5-5-3-5---1-1-3-3-5-5-3-3-1-1----|
A|--1-3-3-1-3--1-1-3-3-5-5-3-3-1-1--1-3-3-1-3---1-1-3-3-5-5-3-3-1-1----|
D|-------------1-1-3-3-5-5-3-3-1-1--------------1-1-3-3-5-5-3-3-1-1----|

E|-------------------------------------|
B|-------------------------------------|
G|-------------------------------------| x3
D|----8-8-8-8-8-8-8-8\5-5-5-5-5-5-5-5--|
A|-------------------------------------|
D|-------------------------------------|

Solo
E|----------------------------------------------------|
B|----------------------------------------------------|
G|----------------------------------------------------|
D|----12-12-12-12-12-12-12-12b13b12--5-5-5-5-5-5-5-5--|
A|----------------------------------------------------|
D|----------------------------------------------------|

E|----------------------------------------------------|
B|----------------------------------------------------|
G|----------------------------------------------------|
D|----13-13-13-13-13-13-13-13b15b13--5-5-5-5-5-5-5-5--|
A|----------------------------------------------------|
D|----------------------------------------------------|

E|----------------------------------------------------------------|
B|----------------------------------------------------------------|
G|----------------------------------15-15-x-x-17-x-x-17-x-x-17~---|
D|----13-13-x-x-15-15-x-x-17-17-x-x-------------------------------|
A|----------------------------------------------------------------|
D|----------------------------------------------------------------|


E|------------------------|-----|----------------------|----|
B|----17p15----17p15------|-----|--16p15----16p15------|----|
G|----------17--------17--|-----|--------17-------17---|----| x2
D|------------------------|-----|----------------------|----|
A|------------------------|-----|----------------------|----|
D|------------------------|-----|----------------------|----|


E|--------------------|----|-------|--------------------------------------|
B|--17p15----17p15----|----|---3/--|-15-15-15-15-16-16-16-16-18-18-18-b20-|
G|--------17-------17-|----|---3/--|-15-15-15-15-15-15-15-15-15-15-15-----|
D|--------------------|----|-------|--------------------------------------|
A|--------------------|----|-------|--------------------------------------|
D|--------------------|----|-------|--------------------------------------|


Bridge (drive chords)
E|----------|---------|---------|---------|
B|----------|---------|----8----|----8----|
G|---8------|---8-----|----8----|----8----|
D|---8------|---8-----|----8----|----6----|
A|---6------|---6-----|----x----|----6----|
D|----------|---------|----10---|----6----|





Order:

Intro
Verse
Verse Break
Verse
Pre-Chorus
Verse
Chorus
Pre-Break
Break
Solo
Chorus
Bridge
Break
Добавлено: 25.09.2013
Другие материалы по этой песне:

Страница создана 25.09.2013
http://primanota.ru/biffy-clyro/paperfriend-chords.htm
Привет, Гость.
Предлагаем пройти революционный курс по гитаре.
Подарок от PrimaNota.Ru, забирай!