PrimaNota.ru - самый крупный в мире бесплатный архив песенных текстов, аккордов, табулатур и нот


Biffy Clyro - No Im Not Down - таба, видео

Регистрация Запомнить меня
Войти через:  Facebook Google Twitter Vk Yandex Mail.ru

Biffy Clyro - No Im Not Down - таба, видео

Печатать
Просмотров: 172
Уроки эстрадного вокала в Санкт-Петербурге
Авторы музыки: Biffy Clyro
Авторы текста: Simon Neil
no I'm down

tabbed by Plasticman

                                           
D#|---------------------------------------|
A#|---------------------------------------|
F#|---------------------------------------|
C#|-11-7-6-7/11-7-6-44444444444/2/44444444|
G#|-----------------44444444444/2/44444444|
C#|-----------------44444444444/2/44444444|



verse 

part1                                             
D#|-----------------------------------------------|
A#|-----------------------------------------------|
F#|-----------------------------44444444444444444-|
C#|-7/0-2/44/7/12/2/44/7/0-2/44/22222222222222222-|
G#|-7/0-2/44/7/12/2/44/7/0-2/44/22222222222222222-|
C#|-7/0-2/44/7/12/2/44/7/0-2/44/22222222222222222-|

part2
D#|-----------------------------------------------------------|
A#|-----------------------------------------------------------|
F#|-----------------------------44444444/13-13-13-13-13-13-13-|
C#|-7/0-2/44/7/12/2/44/7/0-2/44/22222222/11-11-11-11-11-11-11-|
G#|-7/0-2/44/7/12/2/44/7/0-2/44/22222222/11-11-11-11-11-11-11-|
C#|-7/0-2/44/7/12/2/44/7/0-2/44/22222222/11-11-11-11-11-11-11-|


chorus                                     
D#|---------------------------------------|
A#|-------------------------------33333---|
F#|-11--9---6--11--11--9---666/44-22222---|
C#|-0---7---4--0---0---7---444/22-00000---|
G#|-0---7---4--0---0---7---444/22-00000---|
C#|-0---7---4--0---0---7---444/22-00000---|

post chorus
D#|-----------------------|
A#|-----------------------|
F#|-----------------------|
C#|-44444444444/2/44444444|
G#|-44444444444/2/44444444|
C#|-44444444444/2/44444444|

verse part2

chorus

bridge                                           
D#|---------------------------------------------|
A#|--------------------------------------33333--|
F#|-4444444/13-13-13-13-13-13\6666666/44-22222--|
C#|-2222222/11-11-11-11-11-11\4444444/22-00000--|X2
G#|-2222222/11-11-11-11-11-11\4444444/22-00000--|
C#|-2222222/11-11-11-11-11-11\4444444/22-00000--|



verse clean                                  
D#|-----------------------------------------|
A#|-----------------------------------------|
F#|-----4-6----------6--------4-6--4---4----|
C#|-7-7-6-7---7/12/2/4----7-7-6-7--6---6----|
G#|-7-0-7-9---7/12/2/4----7-0-7-9--7---7----|
C#|-7-0-------7/12/2/4----7-0---------------|

verse part2


chorus
D#|-----------------------------------|
A#|-----------------------------------|
F#|-11--9---6--11--11--9---666/44/----|
C#|-0---7---4--0---0---7---444/22/----|
G#|-0---7---4--0---0---7---444/22/----|
C#|-0---7---4--0---0---7---444/22/----|

end                                                                                         
D#|------------------------------------------------------------------------------------------------|
A#|------------------------------------------------------------------------------33333----------3--|
F#|-14-14-14-14-11-11-11-99999-11-11-11-666666/14-14-14-14-14/9999999/6666666/44-22222-66666/44-2--|
C#|-12-12-12-12-0--0--0--77777-0--0--0--444444/12-12-12-12-12/7777777/4444444/22-00000-44444/22-0--|
G#|-12-12-12-12-0--0--0--77777-0--0--0--444444/12-12-12-12-12/7777777/4444444/22-00000-44444/22-0--|
C#|-12-12-12-12-0--0--0--77777-0--0--0--444444/12-12-12-12-12/7777777/4444444/22-00000-44444/22-0--|


Добавлено: 09.06.2015
Другие материалы по этой песне:
  • Аккорды и текст

Страница создана 09.06.2015
http://primanota.ru/biffy-clyro/no-im-not-down-chords.htm
Привет, Гость.
Предлагаем пройти революционный курс по гитаре.
Подарок от PrimaNota.Ru, забирай!