PrimaNota.ru - самый крупный в мире бесплатный архив песенных текстов, аккордов, табулатур и нот


Biffy Clyro - Feverish - таба, бас-таба, видео

Регистрация Запомнить меня
Войти через:  Facebook Google Twitter Vk Yandex Mail.ru

Biffy Clyro - Feverish - таба, бас-таба, видео

Печатать
Просмотров: 87
Авторы музыки: Biffy Clyro
Авторы текста: Simon Neil
-------------------------------------------------------------------------------
                             Feverish - Biffy Clyro
-------------------------------------------------------------------------------
Tabbed by: JamesRMontgomer
E-mail: Jamesrmontgomery@live.co.uk

Tuning: C#G#C#F#A#D#

INTRO
e|---------------------------------------------------------------------------| X2
B|-----------------------------------------------------5------------5--------|
G|-------------------------------------------------4-5---4-5----4-5---5-4----|
D|----5----5-----5----5-----5----5-----5----5----5-----------5---------------|
A|---------------------------------------------------------------------------|
E|--5----5-----5----5-----5----5-----5----5----------------------------------|

VERSE
e|---------------------------------------------------------------------------|
B|--3-----------5------------5------3---------5------------5-----------------|
G|--4-------4-5---5-4----4-5---5-4--4-----4-5---5-4----4-5---5-4-------------|
D|--5-----5-----------5-------------5---5-----------5------------------------|
A|-(5)-----------------------------(5)---------------------------------------|
E|---------------------------------------------------------------------------|

PRE-CHORUS (Chords not rhythm)
e|---------------------------------------------------------------------------|
B|--9--------------10----9-----------10--------------------------------------|
G|--9-------8------9-----9-----8-----9---------------------------------------|
D|--9-------9------7-----9-----9-----7---------------------------------------|
A|--7-------9------7-----7-----9-----7---------------------------------------|
E|----------9------7-----------9-----7---------------------------------------|

CHORUS
e|---------------------------------------------------------------------------|
B|---------------------------------------------------------------------------|
G|---------------------------------------------------------------------------|
D|------------5-5------------------------------5-5-------------3s/7----------|
A|----5-5-5-5-3-3-5-5-2-2-2-2-0-0-0-0--5-5-5-5-3-3-5-5-2-2-2-2-1s/5----------|
E|----5-5-5-5-----4-4-2-2-2-2-0-0-0-0--5-5-5-5-----4-4-2-2-2-2---------------|

---------
STRUCTURE
---------
Intro
Verse
Pre-chorus
Chorus
Verse
Pre-chorus
Chorus X2

************************************

| /   slide up
| \   slide down
| h   hammer-on
| p   pull-off
| ~   vibrato
| +   harmonic
| x   Mute note
| b   Bend
| pb  Pre-bend
| br  Bend release
| pbr Pre-bend release
| brb Bend release bend

************************************
Добавлено: 30.10.2015
Другие материалы по этой песне:
  • Аккорды и текст

Страница создана 31.08.2015
http://primanota.ru/biffy-clyro/feverish-chords.htm
Привет, Гость.
Предлагаем пройти революционный курс по гитаре.
Подарок от PrimaNota.Ru, забирай!