PrimaNota.ru - самый крупный в мире бесплатный архив песенных текстов, аккордов, табулатур и нот


Biffy Clyro - Its Always The Quiet Ones - таба, видео

Регистрация Запомнить меня
Войти через:  Facebook Google Twitter Vk Yandex Mail.ru

Biffy Clyro - Its Always The Quiet Ones - таба, видео

Печатать
Просмотров: 147
copied off a site agen but good to have it all in one :)

Intro

e]-12----------------0-------12------0---------0------|
b]----0-12------0---------0-----0-12------0-----------|
g]---------0-12---15---11--------------12---15---11---|
d]----------------------------------------------------|
a]----------------------------------------------------|
e]----------------------------------------------------| x2

e]-5-------------0------5-------------0-0---|
b]---0-5-----0-------0----0-5-----0-----0---|
g]-------0-5---8---4----------0-5---8---4---|
d]------------------------------------------|
a]------------------------------------------|
e]------------------------------------------| x2

Verse

e]---------|----------------------|---------|
b]---------|----------------------|---------|
g]---------|---------(x3)---------|---------|
d]---------|----------------------|---------|
a]---------|------5---------------|------5--|
e]-0h3p0-0-|0h3p0---3p0-0-0h3p0-0-|0h3p0----| x3

e]-------------------------|
b]-------------------------|
g]-------------------------|
d]-5-5-5-5-5-5-7-7-7-7-7-7-|
a]-3-3-3-3-3-3-5-5-5-5-5-5-|
e]-3-3-3-3-3-3-5-5-5-5-5-5-|

e]---------|----------------------|---------|
b]---------|----------------------|---------|
g]---------|----------------------|---------|
d]---------|----------------------|---------|
a]---------|------5---------------|------5--|
e]-0h3p0-0-|0h3p0---3p0-0-0h3p0-0-|0h3p0----|

e]-------------------------|
b]-------------------------|
g]-------------------------|
d]-5-5-5-5-5-5-7-7-7-7-7-7-|
a]-3-3-3-3-3-3-5-5-5-5-5-5-|
e]-3-3-3-3-3-3-5-5-5-5-5-5-|

Chorus

e]------------------------------------------------|
b]------------------------------------------------|
g]-9-9-9-9--11-11-11-11--12-12/14-14--11-11-11-11-|
d]-9-9-9-9--x--x--x--x---x--x--x--x---x--x--x--x--|
a]-7-7-7-7--9--9--9--9---10-10/12-12--9--9--9--9--|
e]-0-0-0-0--10-10-10-10--0--0--0--0---10-10-10-10-|

e]------------------------------------------------|
b]------------------------------------------------|
g]-9-9-9-9--11-11-11-11--12-12-12-12--14-14-14-14-|
d]-x-x-x-x--x--x--x--x---x--x--x--x---x--x--x--x--|
a]-7-7-7-7--9--9--9--9---10-10-10-10--12-12-12-12-|
e]-8-8-8-8--10-10-10-10--12-12-12-12--14-14-14-14-|

Post Chorus

e]-----------------|--------------|-----------------|
b]------(x4)-------|--------------|------(x2)-------|
g]-----------------|--7-----9-----|-----------------|
d]-7-7-7-7-7-7-7-2-|--x-----x-----|-7-7-7-7-7-7-7-2-|
a]-7-7-7-7-7-7-7-2-|--5-----7-----|-7-7-7-7-7-7-7-2-|
e]-5-5-5-5-5-5-5-0-|--6-----8-----|-5-5-5-5-5-5-5-0-|

e]-----------------------------------------------------|
b]-----------------------------------------------------|
g]-7----/9----\5----/7---5/7--9/10-9--7\5-5--7/8-7-----|
d]-x-----x-----x-----x-----x-------x------x------x-----|
a]-5----/7----\3----/5-----5------/7-----\3-----/5-----|
e]-6----/8----\4----/6-----6------/8-----\4-----/6-----|

Verse

e]---------|----------------------|---------|
b]---------|----------------------|---------|
g]---------|---------(x3)---------|---------|
d]---------|----------------------|---------|
a]---------|------5---------------|------5--|
e]-0h3p0-0-|0h3p0---3p0-0-0h3p0-0-|0h3p0----| x3

e]-------------------------|
b]-------------------------|
g]-------------------------|
d]-5-5-5-5-5-5-7-7-7-7-7-7-|
a]-3-3-3-3-3-3-5-5-5-5-5-5-|
e]-3-3-3-3-3-3-5-5-5-5-5-5-|

e]---------|----------------------|---------|
b]---------|----------------------|---------|
g]---------|----------------------|---------|
d]---------|----------------------|---------|
a]---------|------5---------------|------5--|
e]-0h3p0-0-|0h3p0---3p0-0-0h3p0-0-|0h3p0----|

e]-------------------------|
b]-------------------------|
g]-------------------------|
d]-5-5-5-5-5-5-7-7-7-7-7-7-|
a]-3-3-3-3-3-3-5-5-5-5-5-5-|
e]-3-3-3-3-3-3-5-5-5-5-5-5-|

Chorus

e]------------------------------------------------|
b]------------------------------------------------|
g]-9-9-9-9--11-11-11-11--12-12/14-14--11-11-11-11-|
d]-9-9-9-9--x--x--x--x---x--x--x--x---x--x--x--x--|
a]-7-7-7-7--9--9--9--9---10-10/12-12--9--9--9--9--|
e]-0-0-0-0--10-10-10-10--0--0--0--0---10-10-10-10-|

e]------------------------------------------------|
b]------------------------------------------------|
g]-9-9-9-9--11-11-11-11--12-12-12-12--14-14-14-14-|
d]-x-x-x-x--x--x--x--x---x--x--x--x---x--x--x--x--|
a]-7-7-7-7--9--9--9--9---10-10-10-10--12-12-12-12-|
e]-8-8-8-8--10-10-10-10--12-12-12-12--14-14-14-14-|

Chorus x2

e]------------------------------------------------|
b]------------------------------------------------|
g]-9-9-9-9--11-11-11-11--12-12-12-12--14-14-14-14-|
d]-x-x-x-x--x--x--x--x---x--x--x--x---x--x--x--x--|
a]-7-7-7-7--9--9--9--9---10-10-10-10--12-12-12-12-|
e]-8-8-8-8--10-10-10-10--12-12-12-12--14-14-14-14-| x3

e]------------------------------------------|
b]-10-10-10-10-12-12-12-12--13-13-13-13--15-|
g]-9--9--9--9--11-11-11-11--12-12-12-12--14-|
d]-x--x--x--x--x--x--x--x---x--x--x--x---x--|
a]-7--7--7--7--9--9--9--9---10-10-10-10--12-|
e]-8--8--8--8--10-10-10-10--12-12-12-12--14-|

Outro

e]-------------------|
b]-------------------|
g]-------------------|
d]-------------------|
a]----------------5--|
e]-0h3p0-0--0h3p0----|
Добавлено: 25.06.2012
Другие материалы по этой песне:
  • Аккорды и текст

Страница создана 25.06.2012
http://primanota.ru/biffy-clyro/its-always-the-quiet-ones-chords.htm
Привет, Гость.
Предлагаем пройти революционный курс по гитаре.
Подарок от PrimaNota.Ru, забирай!