PrimaNota.ru - самый крупный в мире бесплатный архив песенных текстов, аккордов, табулатур и нот


Biffy Clyro - Less The Product - текст песни, таба, видео

Регистрация Запомнить меня
Войти через:  Facebook Google Twitter Vk Yandex Mail.ru

Biffy Clyro - Less The Product - текст песни, таба, видео

Печатать
Просмотров: 173
Уроки эстрадного вокала в Санкт-Петербурге
e]-------0-----------0------------0-----------0-----|
b]---0-------0---0-------0--0---0--0---0---0----0---|
g]-5---5---5---5---5---5------2------2---2--------2-|
d]--------------------------------------------------|
a]--------------------------------------------------| x6
d]--------------------------------------------------|

e]---------0-----------0------------0-----------0---|
b]-----------0-----------0------------0-----------0-|
g]---4-----------4------------4-----------4---------|
d]-----4-----------4------------4-----------4-------|
a]-2-----2-----2-----2-----0------0-----0-----0-----| x2
d]--------------------------------------------------|

e]-0-0-0-0-0-0-0-0-0-0-0-0-0-0-0-0-0-0-0-0-0-0-0-|
b]-3-3-3-3-3-3-3-3-3-3-3-3-3-3-3-3-3-3-3-3-3-3-3-|
g]-------------------------2-2-2-2-2-2-2-2-2-2-2-|
d]-2-2-2-2-2-2-2-2-2-2-2-2-2-2-2-2-2-2-2-2-2-2-2-|
a]-3-3-3-3-3-3-3-3-3-3-3-3-0-0-0-0-0-0-0-0-0-0-0-| x4
d]-----------------------------------------------|

e]------------------------------------------------------------------|
b]------------------------------------------------------------------|
g]------------------------------------------------------------------|
d]-9-9/13-13-13-13-13-13-13-13-14-14-14-14-14-14-10-10-10-12-12-12--|
a]-7-7/11-11-11-11-11-11-11-11-12-12-12-14-14-14-10-10-10-12-12-12--| x2
d]--------------11-11-11-11-11-12-12-12-14-14-14-10-10-10-12-12-12--|

e]-0-0-0-0-0-0-0-0-0-0-0-0-0-0-0-0-0-0-0-0-0-0-0-|
b]-3-3-3-3-3-3-3-3-3-3-3-3-3-3-3-3-3-3-3-3-3-3-3-|
g]-------------------------2-2-2-2-2-2-2-2-2-2-2-|
d]-2-2-2-2-2-2-2-2-2-2-2-2-2-2-2-2-2-2-2-2-2-2-2-|
a]-3-3-3-3-3-3-3-3-3-3-3-3-0-0-0-0-0-0-0-0-0-0-0-| x4
d]-----------------------------------------------|

e]---------0-----------0------------0-----------0---|
b]-----------0-----------0------------0-----------0-|
g]---4-----------4------------4-----------4---------|
d]-----4-----------4------------4-----------4-------|
a]-2-----2-----2-----2-----0------0-----0-----0-----| x2
d]--------------------------------------------------|

e]----------------------------------------|
b]----------------------------------------|
g]----------------13-13-13-13-13-13-13-13-|
d]-9-9-9-13-13-13-11-11-11-11-11-11-11-11-|
a]-7-7-7-11-11-11-11-11-11-11-11-11-11-11-|
d]----------------11-11-11-11-11-11-11-11-|

e]-------------------------|
b]-------------------------|
g]-------------------------|
d]-0-0-0-2-2-2-5-5-5-7-7-7-|
a]-0-0-0-2-2-2-3-3-3-5-5-5-|
d]-0-0-0-2-2-2-------------|

e]-----------------------------------------|
b]-----------------------------------------|
g]-----------------------------------------|
d]-2-2-2-6-6-6-11-11-11-11-11-11-----------|
a]-2-2-2-6-6-6-11-11-11-11-11-11-----------|
d]-2-2-2-6-6-6-11-11-11-11-11-11-----------|

e]-----------------------------------------|
b]-----------------------------------------|
g]-----------------------------------------|
d]-0-0-0-2-2-2-5-5-5-7-7-7-7-7-7-----------|
a]-0-0-0-2-2-2-3-3-3-5-5-5-5-5-5-----------|
d]-0-0-0-2-2-2-------0-0-0-0-0-0-----------|

e]-----------------------------------------------------------|
b]-----------------------------------------------------------|
g]-7-7-7-7-7-7-7-9-9-9-9-9-9---------------------------------|
d]-5-5-5-5-5-5-5-7-7-7-7-7-7-0-2-2-2-0-2-2-<2>-0-2-2-2-0-2-2-|
a]-5-5-5-5-5-5-5-7-7-7-7-7-7-0-2-2-2-0-2-2-<2>-0-2-2-2-0-2-2-| x2
d]-5-5-5-5-5-5-5-7-7-7-7-7-7-0-2-2-2-0-2-2-<2>-0-2-2-2-0-2-2-|

e]---------------------------|
b]---------------------------|
g]-7-7-7-7-7-7-7-9-9-9-9-9-9-|
d]-5-5-5-5-5-5-5-7-7-7-7-7-7-|
a]-5-5-5-5-5-5-5-7-7-7-7-7-7-|
d]-5-5-5-5-5-5-5-7-7-7-7-7-7-|


e]-----------------------|
b]-----------------------|
g]-----------------------|
d]---5------2------4-----|
a]-3---3--3---3--2---2-0-| x4
d]---------------------0-|

Part1

e]-------------------------------------------------|
b]-------------------------------------------------|
g]-------------------------------------------------|
d]-4-4-4-4-4-4-4-4-4-4-4-4-5-5-5-5-5-5-5-5-5-5-5-5-|
a]-2-2-2-2-2-2-0-0-0-0-0-0-3-3-3-3-3-3-3-3-3-3-3-3-| x4
d]-------------------------------------------------|

Part2

e]-------------------------------------------------|
b]-------------------------------------------------|
g]-------------------------------------------------|
d]-2-2-2-2-2-2-4-4-4-4-4-4-5-5-5-5-5-5-5-5-5-5-5-5-|
a]-2-2-2-2-2-2-0-0-0-0-0-0-3-3-3-3-3-3-3-3-3-3-3-3-| x4
d]-------------------------------------------------|

Part3

e]-----14---------14-------|
b]-12------12--12------12--|
g]-------------------------|
d]-2---2---2---2---2---2---|
a]-2---2---2---2---2---2---|
d]-------------------------|

e]-----14----------14----------14----------14----------14---------14---|
b]-12-----12--12-----12---12------12--12------12--12------12--12----12-|
g]---------------------------------------------------------------------|
d]-4--4---4---4---4---4---5---5---5---5---5---5---5---5---5---5---5--5-|
a]-0--0---0---0---0---0---3---3---3---3---3---3---3---3---3---3---3--3-|
d]---------------------------------------------------------------------|

Part3 x4

e]-----------------------------------------|
b]-----------------------------------------|
g]-----------------------------------------|
d]-9-10-9-9-9-9-4-4-9-10-9-9-9-9-4-4-------|
a]-7-8--7-7-7-7-2-2-7-8--7-7-7-7-2-2-------| x3
d]-----------------------------------------|

e]-------------------------------------------|
b]-------------------------------------------|
g]-------------------------------------------|
d]-2-2-2-2-2-2-2-4-4-4-4-4-4-4-5-5-5-5-5-5-5-|
a]-2-2-2-2-2-2-2-0-0-0-0-0-0-0-5-5-5-5-5-5-5-| x4
d]-2-2-2-2-2-2-2-0-0-0-0-0-0-0-5-5-5-5-5-5-5-|

e]-----------------------------------------|
b]-----------------------------------------|
g]-----------------------------------------|
d]-9-10-9-9-9-9-4-4-9-10-9-9-9-9-4-4-------|
a]-7-8--7-7-7-7-2-2-7-8--7-7-7-7-2-2-------| x2
d]-----------------------------------------|

Part4


e]-----------------------------------------|
b]-----------------------------------------|
g]-12-12-12-12-12-12-12-12-----------------|
d]-12-12-12-12-12-12-12-12-----------------|
a]-10-10-10-10-10-10-10-10-----------------|
d]-----------------------------------------|

e]-----------------------------------------|
b]-----------------------------------------|
g]-12-12-12-12-12-12-12-12-----------------|
d]-12-12-12-12-12-12-12-12-----------------|
a]-10-10-10-10-10-10-10-10-----------------|
d]-10-10-10-10-10-10-10-10-----------------|

Part4 x3

e-----------------------------------------|
b-----------------------------------------|
g-----------------------------------------|
d-2-2-2-2-2-0-2-2-<2><2>-0-2-2-2-2--------|
a-2-2-2-2-2-0-2-2-<2><2>-0-2-2-2-2--------|
d-2-2-2-2-2-0-2-2-<2><2>-0-2-2-2-2--------|
Добавлено: 24.06.2012
Другие материалы по этой песне:
  • Аккорды и текст

Страница создана 28.02.2012
http://primanota.ru/biffy-clyro/less-the-product-chords.htm
Привет, Гость.
Предлагаем пройти революционный курс по гитаре.
Подарок от PrimaNota.Ru, забирай!