PrimaNota.ru - самый крупный в мире бесплатный архив песенных текстов, аккордов, табулатур и нот


Biffy Clyro - Asexual Meat Kitchen - таба, бас-таба, видео

Регистрация Запомнить меня
Войти через:  Facebook Google Twitter Vk Yandex Mail.ru

Biffy Clyro - Asexual Meat Kitchen - таба, бас-таба, видео

Печатать
Просмотров: 105
Уроки эстрадного вокала в Санкт-Петербурге
Asexual Meat Kitchen

Studio version as found on the single of Folding Stars.

Drop D

E|-----------------------|
B|-----------------------|
G|-----------------------|
D|-333-333-33-333-333-33-|
A|-333-333-33-333-333-33-|
D|-333-333-33-333-333-33-|

E|---------------------------------------------|
B|---------------------------------------------|
G|---------------------------------------------|
D|-666-333-666-333-66-33-666-333-666-333-66-33-|
A|-666-333-666-333-66-33-666-333-666-333-66-33-|
D|-666-333-666-333-66-33-666-333-666-333-66-33-|

-

E|---------------------------------------------|
B|---------------------------------------------|
G|---------------------------------------------|
D|-666-333-666-333-66-33-666-333-666-333-66-33-|
A|-----333-----333----33-----333-----333----33-|
D|-----333-----333----33-----333-----333----33-|

E|---------------------------------------------|
B|---------------------------------------------|
G|---------------------------------------------|
D|-555-111-555-111-55-11-555-111-555-111-55-11-|
A|-----111-----111----11-----111-----111----11-|
D|-----111-----111----11-----111-----111----11-| Repeat twice.

-

E|--------------------------3-------------|
B|-101010101010101010/1111--3-88888888/99-|
G|-9-9-9-9-9-9-9-9-9-/1010--2-77777777/88-|
D|-7-7-7-7-7-7-7-7-7-/8-8-000-55555555/66-|
A|-7-7-7-7-7-7-7-7-7-/8-8-000-55555555/66-|
D|-7-7-7-7-7-7-7-7-7-/8-8-000-55555555/66-| Repeat twice.
                            ^let this ring.
-

E|---------------------------------|
B|---------------------------------|
G|---------------------------------|
D|-5-5-5-5-5-5-5-5-5-5-5-5-5-5-5-5-|
A|-3-3-3-3-3-3-3-3-3-3-3-3-3-3-3-3-|
D|-x-x-x-x-x-x-x-x-x-x-x-x-x-x-x-x-|

E|---------------------------------|
B|---------------------------------|
G|-7-7-7-7-7-7-7-7-7-7-7-7-7-7-7-7-|
D|-7-7-7-7-7-7-7-7-7-7-7-7-7-7-7-7-|
A|-5-5-5-5-5-5-5-5-5-5-5-5-5-5-5-5-|
D|-x-x-x-x-x-x-x-x-x-x-x-x-x-x-x-x-| Repeat twice.

-

E|---------------------------------|
B|---------------------------------|
G|---------------------------------|
D|-1-1-1-1-1-1-1-1-1-1-1-1-1-1-1-1-|
A|-1-1-1-1-1-1-1-1-1-1-1-1-1-1-1-1-|
D|-1-1-1-1-1-1-1-1-1-1-1-1-1-1-1-1-|

E|---------------------------------|
B|---------------------------------|
G|---------------------------------|
D|-3-3-3-3-3-3-3-3-3-3-3-3-3-3-3-3-|
A|-3-3-3-3-3-3-3-3-3-3-3-3-3-3-3-3-|
D|-3-3-3-3-3-3-3-3-3-3-3-3-3-3-3-3-|

E|-----------------3-3-3-3-3-3-3-3-|
B|-----------------x-x-x-x-x-x-x-x-|
G|-3-3-3-3-3-3-3-3-3-3-3-3-3-3-3-3-|
D|-1-1-1-1-1-1-1-1-1-1-1-1-1-1-1-1-|
A|-1-1-1-1-1-1-1-1-1-1-1-1-1-1-1-1-|
D|-1-1-1-1-1-1-1-1-1-1-1-1-1-1-1-1-|

E|---------------------------------|
B|---------------------------------|
G|---------------------------------|
D|-3-3-3-3-3-3-3-3-3-3-3-3-3-3-3-3-|
A|-3-3-3-3-3-3-3-3-3-3-3-3-3-3-3-3-|
D|-3-3-3-3-3-3-3-3-3-3-3-3-3-3-3-3-|

-

E|---------------------------------------------|
B|---------------------------------------------|
G|---------------------------------------------|
D|-666-333-666-333-66-33-666-333-666-333-66-33-|
A|-----333-----333----33-----333-----333----33-|
D|-----333-----333----33-----333-----333----33-|

E|---------------------------------------------|
B|---------------------------------------------|
G|---------------------------------------------|
D|-555-111-555-111-55-11-555-111-555-111-55-11-|
A|-----111-----111----11-----111-----111----11-|
D|-----111-----111----11-----111-----111----11-|  repeat twice.

-

E|--------------------------3-------------|
B|--------------------------3-------------|
G|--------------------------2-------------|
D|-7-7-7-7-7-7-7-7-7-/8-8-000-55555555/66-|
A|-7-7-7-7-7-7-7-7-7-/8-8-000-55555555/66-|
D|-7-7-7-7-7-7-7-7-7-/8-8-000-55555555/66-| repeat twice
                            ^let this ring.

-

E|---------------------------------|
B|---------------------------------|
G|---------------------------------|
D|-5-5-5-5-5-5-5-5-5-5-5-5-5-5-5-5-|
A|-3-3-3-3-3-3-3-3-3-3-3-3-3-3-3-3-|
D|-x-x-x-x-x-x-x-x-x-x-x-x-x-x-x-x-|

E|---------------------------------|
B|---------------------------------|
G|-7-7-7-7-7-7-7-7-7-7-7-7-7-7-7-7-|
D|-7-7-7-7-7-7-7-7-7-7-7-7-7-7-7-7-|
A|-5-5-5-5-5-5-5-5-5-5-5-5-5-5-5-5-|
D|-x-x-x-x-x-x-x-x-x-x-x-x-x-x-x-x-| Repeat twice.

-

E|---------------------------------|
B|---------------------------------|
G|---------------------------------|
D|-1-1-1-1-1-1-1-1-1-1-1-1-1-1-1-1-|
A|-1-1-1-1-1-1-1-1-1-1-1-1-1-1-1-1-|
D|-1-1-1-1-1-1-1-1-1-1-1-1-1-1-1-1-|

E|---------------------------------|
B|---------------------------------|
G|---------------------------------|
D|-3-3-3-3-3-3-3-3-3-3-3-3-3-3-3-3-|
A|-3-3-3-3-3-3-3-3-3-3-3-3-3-3-3-3-|
D|-3-3-3-3-3-3-3-3-3-3-3-3-3-3-3-3-|

E|-----------------3-3-3-3-3-3-3-3-|
B|-----------------x-x-x-x-x-x-x-x-|
G|-3-3-3-3-3-3-3-3-3-3-3-3-3-3-3-3-|
D|-1-1-1-1-1-1-1-1-1-1-1-1-1-1-1-1-|
A|-1-1-1-1-1-1-1-1-1-1-1-1-1-1-1-1-|
D|-1-1-1-1-1-1-1-1-1-1-1-1-1-1-1-1-|

E|---------------------------------|
B|---------------------------------|
G|---------------------------------|
D|-3-3-3-3-3-3-3-3-3-3-3-3-3-3-3-3-|
A|-3-3-3-3-3-3-3-3-3-3-3-3-3-3-3-3-|
D|-3-3-3-3-3-3-3-3-3-3-3-3-3-3-3-3-|

-

E|-------------------------------------------------|
B|-------------------------------------------------|
G|---------------------------------7-7-7-7-7-7-7-7-|
D|-5-5-5-5-5-5-5-5-5-5-5-5-5-5-5-5-7-7-7-7-7-7-7-7-|
A|-5-5-5-5-5-5-5-5-3-3-3-3-3-3-3-3-5-5-5-5-5-5-5-5-|
D|-5-5-5-5-5-5-5-5-x-x-x-x-x-x-x-x-x-x-x-x-x-x-x-x-| Repeat twice.

-

E|---------------------------------|
B|---------------------------------|
G|-2-2-2-2-0-0-0-0-2-2-2-2-0-0-0-0-|
D|-2-2-2-2-0-0-0-0-2-2-2-2-0-0-0-0-|
A|-2-2-2-2-0-0-0-0-2-2-2-2-0-0-0-0-|
D|-2-2-2-2-0-0-0-0-2-2-2-2-0-0-0-0-| Repeat twice.

-

E|-------------------------------------------------|
B|-------------------------------------------------|
G|---------------------------------7-7-7-7-7-7-7-7-|
D|-5-5-5-5-5-5-5-5-5-5-5-5-5-5-5-5-7-7-7-7-7-7-7-7-|
A|-5-5-5-5-5-5-5-5-3-3-3-3-3-3-3-3-5-5-5-5-5-5-5-5-|
D|-5-5-5-5-5-5-5-5-x-x-x-x-x-x-x-x-x-x-x-x-x-x-x-x-| Repeat twice.

-

E|---------------------------------|
B|---------------------------------|
G|-2-2-2-2-0-0-0-0-2-2-2-2-0-0-0-0-|
D|-2-2-2-2-0-0-0-0-2-2-2-2-0-0-0-0-|
A|-2-2-2-2-0-0-0-0-2-2-2-2-0-0-0-0-|
D|-2-2-2-2-0-0-0-0-2-2-2-2-0-0-0-0-| Repeat twice.

-

E|-------------------------------------------------|
B|-------------------------------------------------|
G|---------------------------------7-7-7-7-7-7-7-7-|
D|-5-5-5-5-5-5-5-5-5-5-5-5-5-5-5-5-7-7-7-7-7-7-7-7-|
A|-5-5-5-5-5-5-5-5-3-3-3-3-3-3-3-3-5-5-5-5-5-5-5-5-|
D|-5-5-5-5-5-5-5-5-x-x-x-x-x-x-x-x-x-x-x-x-x-x-x-x-| Repeat twice.

-

E|-----------------------------------|
B|-----------------------------------|
G|-2-2-2-2-2-0-0-0-0-2-2-2-2-0-0-0-0-|
D|-2-2-2-2-2-0-0-0-0-2-2-2-2-0-0-0-0-|
A|-2-2-2-2-2-0-0-0-0-2-2-2-2-0-0-0-0-|
D|-2-2-2-2-2-0-0-0-0-2-2-2-2-0-0-0-0-| Repeat twice.

-

E|-------------------------------------------------|
B|-------------------------------------------------|
G|---------------------------------7-7-7-7-7-7-7-7-|
D|-5-5-5-5-5-5-5-5-5-5-5-5-5-5-5-5-7-7-7-7-7-7-7-7-|
A|-5-5-5-5-5-5-5-5-3-3-3-3-3-3-3-3-5-5-5-5-5-5-5-5-|
D|-5-5-5-5-5-5-5-5-x-x-x-x-x-x-x-x-x-x-x-x-x-x-x-x-| Repeat twice.

-

E|-----------------------------------|
B|-----------------------------------|
G|-2-2-2-2-0-0-0-0-2-2-2-2-0-0-0-0-0-|
D|-2-2-2-2-0-0-0-0-2-2-2-2-0-0-0-0-0-|
A|-2-2-2-2-0-0-0-0-2-2-2-2-0-0-0-0-0-|
D|-2-2-2-2-0-0-0-0-2-2-2-2-0-0-0-0-0-| Repeat twice.

-

E|---------------------------------|
B|---------------------------------|
G|-2-2-2-0-0-0-2-2-2-0-0-0-2-2-0-0-|
D|-2-2-2-0-0-0-2-2-2-0-0-0-2-2-0-0-|
A|-2-2-2-0-0-0-2-2-2-0-0-0-2-2-0-0-|
D|-2-2-2-0-0-0-2-2-2-0-0-0-2-2-0-0-| Three times

-

E|-----
B|-----
G|-----
D|-6-0-
A|-6-0-
D|-6-0-

Mess about with these at the the end, finishing with an open.

Enjoy.
Добавлено: 11.10.2013
Другие материалы по этой песне:
  • Аккорды и текст

Страница создана 31.08.2013
http://primanota.ru/biffy-clyro/asexual-meat-kitchen-chords.htm
Привет, Гость.
Предлагаем пройти революционный курс по гитаре.
Подарок от PrimaNota.Ru, забирай!