PrimaNota.ru - самый крупный в мире бесплатный архив песенных текстов, аккордов, табулатур и нот


Biffy Clyro - Bonanzoid Deathgrip - таба, видео

Регистрация Запомнить меня
Войти через:  Facebook Google Twitter Vk Yandex Mail.ru

Biffy Clyro - Bonanzoid Deathgrip - таба, видео

Печатать
Просмотров: 85
This isnt my tab, I found it on Biffierthanthou.com and didnt see it here so thats why 
im reposting it.


Bonanzoid Deathgrip
Neill

Intro

e]------------------|
b]------------------|
g]-------5----------|
d]-------------0----|  x 2
a]---7-----------7--|
d]-6---6------------|

Verse

e]------------------|
b]------------------|
g]-------5----------|
d]-------------0----|  x 4
a]---7-----------7--|
d]-7---7------------|

e]------------------|
b]------------------|
g]-------5----------|
d]-------------0----|  x 2
a]---7-----------7--|
d]-6---6------------|

e]------------------|
b]------------------|
g]-------0----------|
d]-------------3----|  x2
a]---3-----------3--|
d]-3---3------------|

e]------------------|
b]------------------|
g]-------5----------|
d]-------------0----|  x 4
a]---7-----------7--|
d]-7---7------------|

e]------------------|
b]------------------|
g]-------5----------|
d]-------------0----|  x 2
a]---7-----------7--|
d]-7---7------------|

e]------------------|
b]------------------|
g]-------0----------|
d]-------------3----|  x2
a]---3-----------3--|
d]-3---3------------|

e]--------------------|
b]--------------------|
g]-------2---0---2----|
d]--------------------|  x 2
a]---0----------------|
d]-0---0---0---0------|

e]------------------|
b]-------1---0---1--|
g]------------------|
d]---2--------------|  x 2
a]------------------|
d]-2---2---2---2----|

Chorus 1

"Why do you take..."
e]------------------|
b]------------------|
g]-------5----------|
d]-------------0----|  x 2
a]---7-----------7--|
d]-7---7------------|

e]------------------|
b]-------------0----|
g]-------7-------7--|
d]---6--------------|  x 2
a]-7---7------------|
d]------------------|

e]------------------|
b]-----5-------5----|
g]------------------|
d]---7---7---7---7--|
a]-5-------5--------|
d]------------------|

e]-----------------------|
b]-----------------------|
g]-------7----7---7------|
d]---6-----6----6---6----|
a]-7---7-----7----7---7--|
d]-----------------------|

Verse 2 - same as verse 1 with the last 2 bits of tabbed played through twice.

Chorus 2 - Only variation...

e]------------------|
b]-----8-------8----|
g]-----5-------5----|
d]---7---7---7---7--|
a]-5-------5--------|
d]------------------|

Pre-Heavyness

e]--------|
b]--------|
g]-7--7-7-|
d]-7--6-6-|
a]-5--7-7-|
d]--------|

e]----------|
b]----------|
g]-7-7--7-7-|
d]-7-7--6-6-|  x3
a]-5-5--7-7-|
d]----------|

e]---------------------------------|
b]---------------------------------|
g]---------------------------------|
d]-0-0-2p0-2p0----0-0-2p0-2p0-0-5--|
a]---------------------------------|
d]---------------------------------|

e]-------------------7-----------------10\-|
b]-10-8---7--8/9/10----10-8-7--8/9/10--10\-|
g]------7----------------------------------|
d]-----------------------------------------|
a]-----------------------------------------|
d]-----------------------------------------|

e]------------------------------|
b]------------------------------|
g]------------------------------|
d]-0-0-2p0-2p0---0-0-2-2p0-0-5--|
a]-0-0-2p0-2p0---0-0-2-2p0-0-5--|
d]-0-0-2p0-2p0---0-0-2-2p0-0-5--|

e]------------------------------|
b]------------------------------|
g]------------------------------|
d]-0-0-2p0-2p0---0-0-2-2p0-0-3--|
a]-0-0-2p0-2p0---0-0-2-2p0-0-3--|
d]-0-0-2p0-2p0---0-0-2-2p0-0-3--|

e]------------------------------|
b]------------------------------|
g]------------------------------|
d]-0-0-2p0-2p0---0-0-2-2p0-0-5--|
a]-0-0-2p0-2p0---0-0-2-2p0-0-5--|
d]-0-0-2p0-2p0---0-0-2-2p0-0-5--|

e]-------------------7-----------------10\-|
b]-10-8---7--8/9/10----10-8-7--8/9/10--10\-|
g]------7----------------------------------|
d]-----------------------------------------|
a]-----------------------------------------|
d]-----------------------------------------|

2 Guitar part - Chords above played over tab below.

x5x7xx

e]--------7-------------7-----------|
b]-7-8-10---10-8-7-8-10---10-8-7-8--|
g]-7-------------7-------------7----|
d]----------------------------------|
a]----------------------------------|
d]----------------------------------|

x7x9xx

e]--------7-------------7-----------|
b]-7-8-10---10-8-7-8-10---10-8-7-8--|
g]-7-------------7-------------7----|
d]----------------------------------|
a]----------------------------------|
d]----------------------------------|

x5x7xx

e]--------7-------------7-----------|
b]-7-8-10---10-8-7-8-10---10-8-7-8--|
g]-7-------------7-------------7----|
d]----------------------------------|
a]----------------------------------|
d]----------------------------------|

5x07xx

e]--------7-------------7-----------|
b]-7-8-10---10-8-7-8-10---10-8-7-8--|
g]-7-------------7-------------7----|
d]----------------------------------|
a]----------------------------------|
d]----------------------------------|

x5x7xx

e]--------7-------------7-----------|
b]-7-8-10---10-8-7-8-10---10-8-7-8--|
g]-7-------------7-------------7----|
d]----------------------------------|
a]----------------------------------|
d]----------------------------------|

x7x9xx

e]--------7-------------7-----------|
b]-7-8-10---10-8-7-8-10---10-8-7-8--|
g]-7-------------7-------------7----|
d]----------------------------------|
a]----------------------------------|
d]----------------------------------|

x8x10xx

e]----------8----------------8-------------|
b]--8-10-12---12-10--8-10-12---12-10--8-10-|
g]-10---------------10---------------10----|
d]-----------------------------------------|  x2
a]-----------------------------------------|
d]-----------------------------------------|

"Vampires..."
(not rhythm specific)
e]-------------------------------------------|
b]-------------------------------------------|
g]-5-5-5-5-5-5-7-9-9-9-9-9-9-4-2-2-2-2-2-2-4-|
d]-5-5-5-5-5-5-7-9-9-9-9-9-9-4-2-2-2-2-2-2-4-|  x2
a]-3-3-3-3-3-3-5-7-7-7-7-7-7-2-0-0-0-0-0-0-2-|
d]-------------------------------------------|

e]------------------------------|
b]------------------------------|
g]------------------------------|
d]-0-0-2p0-2p0---0-0-2-2p0-0-5--|
a]-0-0-2p0-2p0---0-0-2-2p0-0-5--|
d]-0-0-2p0-2p0---0-0-2-2p0-0-5--|

e]------------------------------|
b]------------------------------|
g]------------------------------|
d]-0-0-2p0-2p0---0-0-2-2p0-0-3--|
a]-0-0-2p0-2p0---0-0-2-2p0-0-3--|
d]-0-0-2p0-2p0---0-0-2-2p0-0-3--|

e]------------------------------|
b]------------------------------|
g]------------------------------|
d]-0-0-2p0-2p0---0-0-2-2p0-0-5--|
a]-0-0-2p0-2p0---0-0-2-2p0-0-5--|
d]-0-0-2p0-2p0---0-0-2-2p0-0-5--|

e]-------------------7-----------------10\-|
b]-10-8---7--8/9/10----10-8-7--8/9/10--10\-|
g]------7----------------------------------|
d]-----------------------------------------|
a]-----------------------------------------|
d]-----------------------------------------|

Repeat whole last section from the 2 guitar part to the "vampires" bit

Outro

e]------------------------------------------|
b]------------------------------------------|
g]------------------------------------------|
d]-9-9-11p9-11p9-9-2--9--11-11-14p11-14p11\-|
a]-9-9-11p9-11p9-9-2--9--11-11-14p11-14p11\-|
d]-9-9-11p9-11p9-9-2--9--11-11-14p11-14p11\-|
Добавлено: 05.08.2013
Другие материалы по этой песне:
  • Аккорды и текст

Страница создана 05.08.2013
http://primanota.ru/biffy-clyro/bonanzoid-deathgrip-chords.htm
Привет, Гость.
Предлагаем пройти революционный курс по гитаре.
Подарок от PrimaNota.Ru, забирай!