PrimaNota.ru - самый крупный в мире бесплатный архив песенных текстов, аккордов, табулатур и нот


Behemoth - Rising Proudly Towards The Sky - текст песни, таба, видео

Регистрация Запомнить меня
Войти через:  Facebook Google Twitter Vk Yandex Mail.ru

Behemoth - Rising Proudly Towards The Sky - текст песни, таба, видео

Печатать
Просмотров: 187
Авторы музыки: Nergal

Band: Behemoth
Album: Grom
Song: Rising Proudly Towards The Sky

Normal Tuning

Riff:1
|-------------------------------------------------------------------|
|-------------------------------------------------------------------|
|-------------------------------------------------------------------|
|-----------------------555444-----------------555777---------------|
|-00000--003322---------777555--003322---------777888---------------|
|--------------55335511---------------55335511----------------------|

Riff:2                 Riff:3
|---------------------|---------------------------------------------|
|---------------------|---------------------------------------------|
|---------------------|---------------------------------------------|
|-222-101010-22-99888-|----999888555----999888555----999888555----55|
|-000-8-8-8--00-77666-|-222777666333-222777666333-222777666333-333--|
|---------------------|-000----------000----------000---------------|

Cont.        Riff:4 (under piano solo)
|-----------|-------------------------------------------------------|
|-----------|-------------------------------------------------------|
|-----------|-------------------------------------------------------|
|5444---444-|------9-99-5-55--p-p--------9-99-5-55-5/8-------9-99-5-|
|----333222-|-2-22-7-77-3-33-5-4-3--2-22-7-77-3-33-3/6--2-22-7-77-3-|
|-----------|-0-00------------------0-00----------------0-00--------|

Cont.                              Fill:1
|---------------------------------|---------------------------------|
|---------------------------------|---------------------------------|
|---------------------------------|--x\-----------------------------|
|55--p-p--------9-99-5-55---------|-x\-\----------------------------|
|33-5-4-3--2-22-7-77-3-33--//19\\-|---\-\---------------------------|
|----------0-00-------------------|----\-\--------------------------|

Riff:5
|-------------------------------------------------------------------|
|-------------------------------------------------------------------|
|-------------------------------------------------------------------|
|-2--------9-----7-----9-10-9-----7-----------h-h-p-p---------------|
|-0-000000-7-000-5-000-7-8--7-000-5-000-2222-2-3-5-3-2--------------|
|-------------------------------------------------------------------|

Riff:6
|-------------------------------------------------------------------|
|-------------------------------------------------------------------|
|-----------------------------------5544----5544--------------------|
|-2---9--5--2---9--4--2---9--5--------------------------------------|
|-2---7--3--2---7--2--2---7--3--2222----0022------------------------|
|-0---------0---------0---------------------------------------------|

keep it metal..
Добавлено: 28.02.2012
Другие материалы по этой песне:
  • Аккорды и текст

Страница создана 28.02.2012
http://primanota.ru/behemoth/rising-proudly-towards-the-sky-chords.htm
Привет, Гость.
Предлагаем пройти революционный курс по гитаре.
Подарок от PrimaNota.Ru, забирай!