PrimaNota.ru - самый крупный в мире бесплатный архив песенных текстов, аккордов, табулатур и нот


Behemoth - Spellcraft & Heathendom - текст песни, таба, видео

Регистрация Запомнить меня
Войти через:  Facebook Google Twitter Vk Yandex Mail.ru

Behemoth - Spellcraft & Heathendom - текст песни, таба, видео

Печатать
Просмотров: 174
Авторы музыки: Nergal

Band: Behemoth
Album: Grom
Song: Spellcraft and Heathendom


Normal Tuning

Riff:1                      1-3                                  4th
|------------------------------|------------------------------------|
|------------------------------|------------------------------------|
|------------------------------|------------------------------------|
|-9-----9-----9-----9/13-13-13-|-9-----9-----9-----8--9/13-13-13----|
|-7-----7-----7-----7/11-11-11-|-7-----7-----7-----6--7/11-11-11----|
|---000---000---000------------|---000---000---000------------------|


Riff:2
|-------------------------------------------------------------------|
|----------------------------------------------------h-p------------|
|-------------------------------111188--------1010887-8-7-----------|
|----778877--8877---------------------778877-------------88---------|
|----------88----88666333111---------------88--------------666333111|
|-333-------------------------33------------------------------------|


Riff:3
|-------------------------------------------------------------------|
|-------------------------------------------------------------------|
|-------------------------------------------------------------------|
|--------111111999--------111111999-----4--5--4----445544--223322---|
|--------9-9-9-777--------9-9-9-777--------------55------33---------|
|-0000000----------0000000----------0000-00-00-00-------------------|

Cont.                            Riff:4
|-------------------------------|-----------------------------------|
|-------------------------------|-----------------------------------|
|-------------------------------|----------------55-----------------|
|-----4--5--4----447744--225522-|-----555-----77-77-----555444222---|
|--------------55------33-------|-----777-----88--------777555333---|
|-0000-00-00-00-----------------|-000-----000-------000-------------|


Riff:5                        Riff:6a
|----------------------------|--------------------------------------|
|----------------------------|--------------------------------------|
|----------------------------|--------------------------------------|
|-9-----10-----9-------------|----------------h-h--7~~--------------|
|-7-----8------7-10-9-7-9-10-|----777--------5-7-8--------777-------|
|---000----000---8--7-5-7-8--|-000---888-000-----------000---888-000|

Cont.
|-------------------------------------------------------------------|
|-------------------------------------------------------------------|
|------------------------------------------Trill--------------------|
|Trill----------------h-h--7~~--------------5-7---------------------|
|-5-7-----777--------5-7-8--------777-------------------------------|
|------000---888-000-----------000---888-000------------------------|


Riff:6b
|-------------------------------------------------------------------|
|-------------------------------------------------------------------|
|-------------------------------------------------------------------|
|----------------h-p--7~~--------------Trill----------------h-p--7~~|
|-000777----000-5-7-8-----000777----000-5-7--000777----000-5-7-8----|
|-------888---------------------888----------------888--------------|

Cont.
|-------------------------------------------------------------------|
|-------------------------------------------------------------------|
|--------------Trill------------------------------------------------|
|---------------5-7-------------------------------------------------|
|-000777----000-----------------------------------------------------|
|-------888---------------------------------------------------------|

keep it metal..
Добавлено: 21.04.2012
Другие материалы по этой песне:
  • Аккорды и текст

Страница создана 21.04.2012
http://primanota.ru/behemoth/spellcraft-and-heathendom-chords.htm
Привет, Гость.
Предлагаем пройти революционный курс по гитаре.
Подарок от PrimaNota.Ru, забирай!