PrimaNota.ru - самый крупный в мире бесплатный архив песенных текстов, аккордов, табулатур и нот


Behemoth - Arcana Hereticae - текст песни, таба, видео

Регистрация Запомнить меня
Войти через:  Facebook Google Twitter Vk Yandex Mail.ru

Behemoth - Arcana Hereticae - текст песни, таба, видео

Печатать
Просмотров: 228
-------------------------------------------------------------------------------
                             Arcana Hereticae - Behemoth
-------------------------------------------------------------------------------
Tabbed by: Greg M.

 This is the first song off of The Apostasy that I actually liked. It\'s short, but fun 
play, as long as you can sweep pick. Forgive me if there are errors, it\'s also the 
song off of the album to be tabbed. The string names are likely incorrect as well.

Tuning: Drop Bb


Intro chords, under mini sweep thing
Cb|---------------------------------------------------------------------------|
Fb|-----------------------O---------------------------------------------------|
Db|---------------------------------------------------------------------------|
Ab|3-4--8-7-----3-4-----8-----------------------------------------------------|
Eb|1-2--6-5-----1-2-----6-O---------------------------------------------------|
Bb|---------------------------------------------------------------------------|

mini sweep thing
Cb|-------14-18-14----------14-18-14----------14-18-14----------14-18-12------|
Fb|-----16--------16------16--------16------16--------16------16--------16----|
Db|---15------------15--15------------15--15------------15--15------------15--|
Ab|-16----------------16----------------16----------------16----------------16|
Eb|---------------------------------------------------------------------------|
Bb|---------------------------------------------------------------------------|

Cb|-----16-21-16-------16-21-16------16-21-16------16-21-16-------------------|
Fb|---17---------17--17--------17--17--------17--17--------17-----------------|
Db|-18-------------18------------18------------18------------18---------------|
Ab|---------------------------------------------------------------------------|
Eb|---------------------------------------------------------------------------|
Bb|---------------------------------------------------------------------------|

Just play that until you hear it stop.

Then something like this occurs:
Cb|---------------------------------------------------------------------------|
Fb|---------------------------------------------------------------------------|
Db|---------------------------------------------------------------------------|
Ab|-3-4--7-5-4-7-5-4----------------------------------------------------------|
Eb|-1-2--7-5-4-7-5-4----------------------------------------------------------|
Bb|------7-5-4-7-5-4----------------------------------------------------------|
         . . . . . .

The verse is the chords under the mini sweep thingy twice, then:
Cb|---------------------------------------------------------------------------|
Fb|---------------------------------------------------------------------------|
Db|-11------------------------------------------------------------------------|
Ab|-11-10-8-108-10-11---------------------------------------------------------|
Eb|-9--8--6-8-6-8--9----------------------------------------------------------|
Bb|---------------------------------------------------------------------------|

There is an interlude solo that I have no idea how to play, but the chords stay the same under it.

On comes the awesome riff;    When it gets lower it\'s:
Cb|-------------------------------------------------------------------------------|
Fb|-------------------------O-----------------------------------------------------|
Db|-------------------------------------------------------------------------------|
Ab|-11-10-7--10-11-14\\13-10------------------------------------------------------|
Eb|-9--8--5--8--9--12\\11-8--O--8--7--4-7-8--11\\10-------------------------------|
Bb|----------------------------8--7--4-7-8--11\\10--------------------------------|

Second Guitar solo: It\'s not 100%, but it\'s close.
Cb|--------------------------17p16p13h16p13-x8--------------------------------|
Fb|--------------------15-17-------------------17-15------------------15-17---|
Db|-17p16p15h16p15-x8-------------------------------17p16p15h16p15-x8---------|
Ab|---------------------------------------------------------------------------|
Eb|---------------------------------------------------------------------------|
Bb|---------------------------------------------------------------------------|

Cb|-17p16p13h16p13-16-t19t16t13t16t17t13t16t19--------------------------------|
Fb|--------------------------------------------17-15------------------15-17---|
Db|--------------------------------------------------17p16p15h16p15-x8--------|
Ab|---------------------------------------------------------------------------|
Eb|---------------------------------------------------------------------------|
Bb|---------------------------------------------------------------------------|


Cb|-17p16p13h16p13-x8----------------------------17p16p13h16p13-16-17-19b-----|
Fb|------------------17-15-----------------15-17------------------------------|
Db|-----------------------17p16p15h16p15-x8-----------------------------------|
Ab|---------------------------------------------------------------------------|
Eb|---------------------------------------------------------------------------|
Bb|---------------------------------------------------------------------------|

That\'s the general outline. Be gentle with the ratings please.


| t  tap
| /  slide up
| \\  slide down
| h  hammer-on
| p  pull-off
| ~  vibrato
| +  harmonic
| x  Mute note
===============================================================================
Добавлено: 15.06.2012
Другие материалы по этой песне:

Страница создана 03.03.2012
http://primanota.ru/behemoth/arcana-hereticae-chords.htm
Привет, Гость.
Предлагаем пройти революционный курс по гитаре.
Подарок от PrimaNota.Ru, забирай!