PrimaNota.ru - самый крупный в мире бесплатный архив песенных текстов, аккордов, табулатур и нот


Behemoth - Christgrinding Avenue - текст песни, таба, видео

Регистрация Запомнить меня
Войти через:  Facebook Google Twitter Vk Yandex Mail.ru

Behemoth - Christgrinding Avenue - текст песни, таба, видео

Печатать
Просмотров: 214
-------------------------------------------------------------------------------
                         CHRISTGRINDING AVENUE
-------------------------------------------------------------------------------

THOSE ARE 10 AND 12 NOT 1,0 AND 2
   GUITAR 1                                0:00
E|--------------------------------------------------|
B|--------------------------------------------------|
G|--------------------------------------------------|
D|-----101010109999----1212121210101010999910101010-|
A|--------------------------------------------------|
E|--------------------------------------------------|
B|-0000------------0000-----------------------------|
PM ----            ----
  GUITAR 2                                 
E|--------------------------------------------------|
B|--------------------------------------------------|
G|--------------------------------------------------|
D|--------------------------------------------------|
A|-2>-----------------------------------------------|
E|-2>-----------------------------------------------|
B|-0>-----------------------------------------------|

   GUITAR 1                               0:02
E|--------------------------------------------------|
B|--------------------------------------------------|
G|--------------------------------------------------|
D|-----101010109999----1212121210101010999910101010-|
A|--------------------------------------------------|
E|--------------------------------------------------|
B|-0000------------0000-----------------------------|
PM ----            ----
  GUITAR 2 
E|--------------------------------------------------|
B|--------------------------------------------------|
G|--------------------------------------------------|
D|--------------------------------------------------|
A|->------------------------------------------------|
E|->------------------------------------------------|
B|->------------------------------------------------|

   GUITAR 1                                0:04
E|--------------------------------------------------|
B|--------------------------------------------------|
G|--------------------------------------------------|
D|-----101010109999----1212121210101010999910101010-|
A|--------------------------------------------------|
E|--------------------------------------------------|
B|-0000------------0000-----------------------------|
PM ----            ----
  GUITAR 2
E|--------------------------------------------------|
B|--------------------------------------------------|
G|--------------------------------------------------|
D|--------------------------------------------------|
A|-2------------------------------------------------|
E|-2------------------------------------------------|
B|-0------------------------------------------------|
PM -

   GUITAR 1                     0:06
E|--------------------------------------------------|
B|--------------------------------------------------|
G|--------------------------------------------------|
D|-----101010109999---------------------------------|
A|-----------------------2--2---2---2---2--2--------|
E|-----------------------2--2---2---2---2--2--------|
B|-0000------------0000--0--0---0---0---0--0--------|
PM ----            ----  -  -   -   -   -  - 
  GUITAR 2
E|--------------------------------------------------|
B|--------------------------------------------------|
G|--------------------------------------------------|
D|--------------------------------------------------|
A|-2---------------------2--2---2---2---2--2--------|
E|-2---------------------2--2---2---2---2--2--------|
B|-0---------------------0--0---0---0---0--0--------|
PM -                     -  -   -   -   -  -   


SILENCE AND THEN THE NEXT BIT IS THE SAME THEN IT CHANGES AND I'M NOT SURE BOUT THE REST

7 STRING BEADGBE   OR FOR 6 STRING JUST B STANDARD  BEADGB
Добавлено: 31.07.2012
Другие материалы по этой песне:

Страница создана 25.03.2012
http://primanota.ru/behemoth/christgrinding-avenue-chords.htm
Привет, Гость.
Предлагаем пройти революционный курс по гитаре.
Подарок от PrimaNota.Ru, забирай!