PrimaNota.ru - самый крупный в мире бесплатный архив песенных текстов, аккордов, табулатур и нот


Behemoth - 23 The Youth Manifesto - текст песни, таба, видео

Регистрация Запомнить меня
Войти через:  Facebook Google Twitter Vk Yandex Mail.ru

Behemoth - 23 The Youth Manifesto - текст песни, таба, видео

Печатать
Просмотров: 309
BEHEMOTH
23 THE YOUTH MANIFESTO


I Guitar (Riff 1)
E----------------------------------750-750-750-750-850-850-850-850-------|
B--750-750-750-750-850-850-850-850---------------------------------------|
G------------------------------------------------------------------------|
D------------------------------------------------------------------------|
A------------------------------------------------------------------------|
E------------------------------------------------------------------------|

II Guitar (Riff 1B)
E----------------|
B----------------|
G----------------|
D--2~~~~~~~~-----|
A--2~~~~~~~~-----|
E--0~~~~~~~~-----|

II Guitar (Riff 1C)
E--------------------------------|
B--------------------------------|
G--------------------------------|
D--2---4-4------3---5------------|
A--2---2-2------3---3---2~-------|
E--0~~~---------1~~~-------------|

E-------------
B--5~~~~~~~~--
G-------------|
D-------------|
A-------------|
E-------------|

now comes 'the unholy silence'... and...
(Riff 2)
E----------------------------------------------------------|
B----------------------------------------------------------|
G----------------------------------------------------------|  x3
D---2--------2--3--5--3--2---------------------------------|
A---2---^3---2--3--5--3--2----2---~/7-(7)-(7)-6-(6)-(6)-3--|
E---0--------0--1--3--1--0---------------------------------|

E--------------------------------------------------|
B--------------------------------------------------|
G--------------------------------------------------|
D---2--------2--3--5--3--2-------------------------|
A---2---^3---2--3--5--3--2---^2----5-4----^3-----2-|
E---0--------0--1--3--1--0-------------6-5---4-5---|
Добавлено: 02.05.2012
Другие материалы по этой песне:

Страница создана 21.02.2012
http://primanota.ru/behemoth/23-the-youth-manifesto-chords.htm
Привет, Гость.
Предлагаем пройти революционный курс по гитаре.
Подарок от PrimaNota.Ru, забирай!