PrimaNota.ru - самый крупный в мире бесплатный архив песенных текстов, аккордов, табулатур и нот


Beck Mongolian Chop Squad - Moon In The Water - таба, видео

Регистрация Запомнить меня
Войти через:  Facebook Google Twitter Vk Yandex Mail.ru

Beck Mongolian Chop Squad - Moon In The Water - таба, видео

Печатать
Просмотров: 632

   Q   E E  Q   E E   E E +E  E  E  E Q
|--0---0-0--0---0-0-|-2-2-(2)-2--2--2-2---|
|--0---0-0--0---0-0-|-4-4-(4)-4--4--4-4---|
|--1---1-1--1---1-1-|-4-4-(4)-4--4--4-4---|
|--2---2-2--2---2-2-|-4-4-(4)-4--4--4-4---|
|--2---2-2--2---2-2-|-2-2-(2)-2--2--2-2---|
|--0---0-0--0---0-0-|-2-2-(2)-2--2--2-2---|
|
|  H        H         H          H
|--4--------4-------|-7----------7--------|
|--5--------5-------|-7----------7--------|
|-------------------|-4----------4--------|
|--6--------6-------|---------------------|
|-------------------|---------------------|
|-------------------|---------------------|
|
| +Q   Q   +H         E E +E  E +Q    E E
|-------------------|---------------------|
|-------------------|---------------------|
|-------------------|---------------------|
|-(4)--2---(2)------|-1-2-(2)-1-(1)-------|
|-------------------|-----------------2-4-|
|-------------------|---------------------|


   Q.   E +E  E Q      E  E +E  E E E Q
|--2----2-(2)-2-2--|---2--2-(2)-2-2-2-2---|
|--2----2-(2)-2-2--|---2--2-(2)-2-2-2-2---|
|--2----2-(2)-2-2--|---2--2-(2)-2-2-2-2---|
|--4----4-(4)-4-4--|---4--4-(4)-4-4-4-4---|
|--4----4-(4)-4-4--|---4--4-(4)-4-4-4-4---|
|--2----2-(2)-2-2--|---2--2-(2)-2-2-2-2---|
|
|  W                  +W
|------------------|----------------------|
|-14---------------|-(14)-----------------|
|-14---------------|-(14)-----------------|
|-11---------------|-(11)-----------------|
|------------------|----------------------|
|------------------|----------------------|
|
| +W                  +H.             E E
|------------------|----------------------|
|------------------|----------------------|
|------------------|----------------------|
|------------------|----------------------|
|-(4)--------------|--(4)-------------2-4-|
|------------------|----------------------|


   Q.   E +E  E Q      E  E +E  E E E  Q
|--0----0-(0)-0-0--|---0--0-(0)-0-0-0--0---|
|--0----0-(0)-0-0--|---0--0-(0)-0-0-0--0---|
|--2----2-(2)-2-2--|---2--2-(2)-2-2-2--2---|
|--2----2-(2)-2-2--|---2--2-(2)-2-2-2--2---|
|--0----0-(0)-0-0--|---0--0-(0)-0-0-0--0---|
|--0----0-(0)-0-0--|---0--0-(0)-0-0-0--0---|
|
|  W                  +W
|------------------|-----------------------|
|-12---------------|-(12)------------------|
|-11---------------|-(11)------------------|
|--9---------------|--(9)------------------|
|------------------|-----------------------|
|------------------|-----------------------|
|
|  W                  +H          E E +Q
|------------------|-----------------------|
|------------------|-----------------------|
|------------------|-----------------------|
|------------------|----------------2-(2)--|
|--2---------------|--(2)---------4--------|
|------------------|-----------------------|


   Q  E E  Q   E E    Q  E E  E E E E
|--4--4-4--4---4-4-|--0--0-0--0-0-0-0-|
|--5--5-5--5---5-5-|--0--0-0--0-0-0-0-|
|--6--6-6--6---6-6-|--2--2-2--2-2-2-2-|
|--6--6-6--6---6-6-|--2--2-2--2-2-2-2-|
|--4--4-4--4---4-4-|--0--0-0--0-0-0-0-|
|--4--4-4--4---4-4-|--0--0-0--0-0-0-0-|
|
|  H       H          H       H
|------------------|------------------|
|--9-------9-------|-10------10-------|
|--9-------9-------|--9-------9-------|
|------------------|--7-------7-------|
|-11------11-------|------------------|
|------------------|------------------|
|
|  H      +Q.    E    Q  Q    Q   E E
|------------------|------------------|
|------------------|------------------|
|--1------(1)------|--1---------------|
|------------------|-----4----2---4-4-|
|----------------2-|------------------|
|------------------|------------------|


   Q   E E  Q   E E   E E +E  E  E  E  Q
|--0---0-0--0---0-0-|-2-2-(2)-2--2--2--2----|
|--0---0-0--0---0-0-|-4-4-(4)-4--4--4--4----|
|--1---1-1--1---1-1-|-4-4-(4)-4--4--4--4----|
|--2---2-2--2---2-2-|-4-4-(4)-4--4--4--4----|
|--2---2-2--2---2-2-|-2-2-(2)-2--2--2--2----|
|--0---0-0--0---0-0-|-2-2-(2)-2--2--2--2----|
|
|  H        H         H          H
|-------------------|-7----------7----------|
|--9--------9-------|-7----------7----------|
|--9--------9-------|-4----------4----------|
|--6--------6-------|-----------------------|
|-------------------|-----------------------|
|-------------------|-----------------------|
|
| +Q   Q   +H         E E +E  E +E  E +E  E
|-------------------|-----------------------|
|-------------------|-----------------------|
|-------------------|-----------------------|
|-(4)--2---(2)------|-1-2-(2)-1-(1)---------|
|-------------------|---------------2-(2)-4-|
|-------------------|-----------------------|


   Q.   E +E  E Q      E  E +E  E E E Q
|--2----2-(2)-2-2--|---2--2-(2)-2-2-2-2---|
|--2----2-(2)-2-2--|---2--2-(2)-2-2-2-2---|
|--2----2-(2)-2-2--|---2--2-(2)-2-2-2-2---|
|--4----4-(4)-4-4--|---4--4-(4)-4-4-4-4---|
|--4----4-(4)-4-4--|---4--4-(4)-4-4-4-4---|
|--2----2-(2)-2-2--|---2--2-(2)-2-2-2-2---|
|
|  W                  +W
|------------------|----------------------|
|-14---------------|-(14)-----------------|
|-14---------------|-(14)-----------------|
|-11---------------|-(11)-----------------|
|------------------|----------------------|
|------------------|----------------------|
|
| +W                   H          Q   E E
|------------------|----------------------|
|------------------|----------------------|
|------------------|----------------------|
|------------------|------------------2-2-|
|-(4)--------------|----------------------|
|------------------|----------------------|

Добавлено: 08.05.2012
Другие материалы по этой песне:
  • Аккорды и текст

Страница создана 08.05.2012
http://primanota.ru/beck-mongolian-chop-squad/moon-in-the-water-chords.htm
Привет, Гость.
Предлагаем пройти революционный курс по гитаре.
Подарок от PrimaNota.Ru, забирай!