PrimaNota.ru - самый крупный в мире бесплатный архив песенных текстов, аккордов, табулатур и нот


Beck Mongolian Chop Squad - Ryusuke Blues - таба, видео

Регистрация Запомнить меня
Войти через:  Facebook Google Twitter Vk Yandex Mail.ru

Beck Mongolian Chop Squad - Ryusuke Blues - таба, видео

Печатать
Просмотров: 138
Minami Ryusuke plays guitar on the episode 3. You have to listen this for a good interpretation and a
nice rythm.
                                                    
e|-----2---2---5-2--|-----0---0---2-0--|      |----2-2-2-2-2-2-2-2-2---2--|
B|-----2-2-2-2-2-2--|-----2-2-2---2-2--|      |----3-3-3-3-3-3-3-3-3---3--|
G|--2--2-2-2-2-2-2--|--2--2-2-2-2-2-2--|  X 2 |-(2)2-----2-----2-----2-2--|
D|--2--2-2-2-2-2-2--|--2--2-2-2-2-2-2--|      |--0-------------------0-0--|
A|--0----0---0------|--0----0---0------|      |---------------------------|
E|------------------|------------------|      |---------------------------|

                     
|-0-0-2-2-3-3-2-2--|--0---------|--2---------|--0---------|---------------|
|-2-2-2-2-2-2-2-2--|--0-E CHoRD-|--3-D CHORD-|--2-A CHORD-|-- E CHORD ----|
|-2-2-2-2-2-2-2-2--|--1---------|--2---------|--2---------|---------------|
|-2-2-2-2-2-2-2-2--|--2---------|--0---------|--2---------|---------------|
|-0-0-0-0-0-0-0-0--|--2---------|------------|--0---------|---------------|
|------------------|--0---------|------------|----------------------------|

|-15--15-15--15-15--15-15-|      |-8--8-8---8-8-|-15--15-15--15-15--15-15-|
|-14--14-14--14-14--14-14-|      |-7--7-7-7-7-7-|-14--14-14--14-14--14-14-|
|-14--14-14--14-14--14-14-| X 2  |-7--7-7-7-7-7-|-14--14-14--14-14--14-14-|
|-------------------------|      |--------------|-------------------------|
|-------------------------|      |--------------|-------------------------|
|-------------------------|      |--------------|-------------------------|

|----10-10----10---|----8-8----8--|---3-3----3--|---0-0--0-0-|-0----------|
|-9--9--9---9-9----|-7--7-7--7-7--|-2-2-2--2-2--|---0-0--0-0-|-2----------|
|-9--9--9---9-9----|-7--7-7--7-7--|-2-2-2--2-2--|---1-1--1-1-|-2----------|
|-9---------9------|-7-------7----|-2------2----|-2-2-2--2-2-|-2----------|
|------------------|--------------|-------------|-2-2-2--2-2-|-0----------|
|------------------|--------------|-------------|-0------0-0-|------------|
Добавлено: 17.11.2015
Другие материалы по этой песне:
  • Аккорды и текст

Страница создана 17.11.2015
http://primanota.ru/beck-mongolian-chop-squad/ryusuke-blues-chords.htm
Привет, Гость.
Предлагаем пройти революционный курс по гитаре.
Подарок от PrimaNota.Ru, забирай!