PrimaNota.ru - самый крупный в мире бесплатный архив песенных текстов, аккордов, табулатур и нот


Beck Mongolian Chop Squad - Spice Of Life - бас-таба, видео

Регистрация Запомнить меня
Войти через:  Facebook Google Twitter Vk Yandex Mail.ru

Beck Mongolian Chop Squad - Spice Of Life - бас-таба, видео

Печатать
Просмотров: 504
Уроки эстрадного вокала в Санкт-Петербурге
SPICE OF LIFE TAB
TYPHOON 24 FT. TATSUZO OF YKZ
BECK ORIGINAL SOUNDTRACK
BASS TAB
TABBED BY NICK CESARZ
cesarzna27@gmail.com for problems


      S E  S S S S E.  S S S E.     S E  S S S S E  S S S S E.   
Gb||-----------------------------|------------------------------|
Db||-----------------------------|------------------------------|
Ab||---------------0-------------|---------------0----0---0-----|
Eb||--3-0----3---3-----3-0-3-0---|--3-0----3---3------------0---|

                                Bar of 7/16

  S E  S S S S E.  S S S E.     S E  S S S S    Q    Q    Q    Q     
-----------------------------|---------------|----------------------|
-----------------------------|---------------|----------------------|
---------------0-------------|---------------|--0----0----3----3----|
--3-0----3---3-----3-0-3-0---|--3-0----3---3-|----------------------|


  Q    Q    Q     Q       E  S S S E.  E  S S S E.   
-----------------------|----------------------------|
-----------------------|---------------7--5---5-----|
--5----5----7----10----|--0-----------------7---7---|
-----------------------|-----3-0-3-0----------------|


  E  S S S E.  S S S S S S S S    E  S S S E.  E  S S S E.   
-------------------------------|----------------------------|
-------------------0-4-5-4-0---|---------------7--5---5-----|
--0------------0-3-----------3-|--0-----------------7---7---|
-----3-0-3-0-------------------|-----3-0-3-0----------------|


                            

  E  S S S E.  S E.  S E.     E  E  E.  S H           E  E  E.  S H         
---------------------------|-----------------------|-----------------------|
---------------------------|-----------------------|-----------------------|
--0--------------3-----4---|-----------------------|-----------------------|
-----3-0-3-0---------------|--0--2------2-L--------|--0--2------2-L--------|


  E  E  E.  S H           E  E  E.  S H           S S E  E  S E.  E  S E.   
-----------------------|-----------------------|---------------------------|
-----------------------|-----------------------|---------------------------|
-----------------------|-----------------------|--3-3-4--5-----------------|
--0--2------2-L--------|--0--2------2----------|--------------0---3--3-0---|


  S S E  E  S E.  E  S E.     S S E  E  S E.  E  S E.   
---------------------------|---------------------------|
---------------------------|---------------------------|
--3-3-4--5-----------------|--3-3-4--5-----------------|
--------------0---3--3-0---|--------------0---3--3-0---|


  S S E  E  S E.  E  S E.     E.  E.  E  S. E  S E     E.  E.  E  S. E SE   
---------------------------|------------------------|-----------------------|
---------------------------|------------------------|-----------------------|
--3-3-4--5-----------------|--3---4---5-------------|--3---4---5------------|
--------------0---3--3-0---|----------------0--3-0--|----------------0--3-0-|

                                    
  E.  E.  E  S. E  S E     E.  E.  E                  
------------------------|----------------------------|
------------------------|----------------------------|
--3---4---5-------------|--3---4---5-----------------|
----------------0--3-0--|----------------------------|

Parts are repeated, you can figure out

After Guitar Solo 

  E  S S S E.  E  S S S E.     E  S S S E.  E  S E  S S S  
----------------------------|-----------------------------|
----------------------------|-----------------------------|
--0------------7--5---5-----|--0--------------------------|
-----3-0-3-0--------7---7---|-----3-0-3-0---3--0-3--0-3-4-|


  E  S S S E.  E  S S S E.     E  S S S E.  E  S E  S S S   
----------------------------|-----------------------------||
----------------------------|-----------------------------||
--0------------7--5---5-----|--0--------------------------||
-----3-0-3-0--------7---7---|-----3-0-3-0---3--0-3--0-3-4-||




Duration Legend
---------------
W - whole
H - half
Q - quarter
E - 8th
S - 16th
T - 32nd
X - 64th
. - note dotted
|-n-|  - n-tuplets


Tablature Legend
----------------
L - tied note
x - dead note
g - grace note
(n) - ghost note
> - accentuded note
NH - natural harmonic
AH - artificial harmonic
TH - tapped harmonic
SH - semi harmonic
PH - pitch harmonic
h - hammer on
p - pull off
b - bend
br - bendRelease
pb - preBend
pbr - preBendRelease
brb - bendReleaseBend
\n/ - tremolo bar dip
\n - tremolo bar dive
-/n - tremolo bar Release up
/n\ - tremolo bar inverted dip
/n - tremolo bar return
-\n - tremolo bar Release down
S - shift slide
s - legato slide
/ -  slide into from below or out of upwards
\ -  slide into from above or out of downwards
~ - vibrato
W - wide vibrato
tr - trill
TP - tremolo picking
T - tapping
S - slap
P - pop
< - fade in
^ - brush up
v - brush down
Добавлено: 20.03.2012
Другие материалы по этой песне:

Страница создана 20.03.2012
http://primanota.ru/beck-mongolian-chop-squad/spice-of-life-chords.htm
Привет, Гость.
Предлагаем пройти революционный курс по гитаре.
Подарок от PrimaNota.Ru, забирай!