PrimaNota.ru - самый крупный в мире бесплатный архив песенных текстов, аккордов, табулатур и нот


Beatsteaks - Indifferent - текст песни, бас-таба, видео

Регистрация Запомнить меня
Войти через:  Facebook Google Twitter Vk Yandex Mail.ru

Beatsteaks - Indifferent - текст песни, бас-таба, видео

Печатать
Просмотров: 174
Авторы музыки: Bernd Kurtzke, Alexander Roßwaag, Arnim Teutoburg-Weiß, Peter Baumann
Авторы текста: Bernd Kurtzke, Alexander Roßwaag, Arnim Teutoburg-Weiß, Peter Baumann
-------------------------------------------------------------------------------
			     BEATSTEAKS - INDIFFERENT
-------------------------------------------------------------------------------

Tabbed By : timberwulf
e-mail:

Tuning: E# A# D G (sort of half step down)

there has'nt been a tab for it, so i tabbed this down. search for indifferent tab at 
to see the guitar tab. thx at Jan Hellert for tabbing the guitar version.

INTRO:
(starts after guitarintro)
                          |-------------------------|
                          |-------------------------|
                          |-------------------------|
                          |------------3-3--3--3--3-|


|-------------------------|------------------------------- |   \
|-------------------------|------------------------------- |    \
|-------------------------|-------------------------|   -- |
|-0----0--0-0--0-0--0--0--|-3----3--3-3--3-3--3--3--|   -- |
                                                         |x4
                                                         |
|-------------------------|-------------------------|   -- |
|-------------------------|-------------------------|   -- |
|-3----3--3-3--3-3--3--3--|-0----0------------------------ |   /
|-------------------------|------------3-3--3--3--3------- |  /


                                                    |-----|
                                                    |-----|
                                                    |-----|
                                                    |-----|
                                                    |-----|
                                                    |-0---|


VERS:
|-------------------------|------------------------------- | \
|-------------------------|------------------------------- |  \
|----------------------0--|-3--3-3-3--3-5---5--5--3--|  -- |
|-0----0--0-0--0-0--0-----|--------------------------|  -- |
                                                         |x3
|-------------------------|--------------------------|  -- |
|-------------------------|--------------------------|  -- |
|----------------------0--|-3--3-3-3--3------------------- |  /
|-0----0--0-0--0-0--0-----|-------------3---3--5--5------- | /


REFRAIN
 "what the fuck is going on..."
|--------------------------|-------------|x3
|--------------------------|-5---2-------|
|--------------------------|-3---0-------|
|-0--0--0--0-0--0--0--0-0--|-------------|

|--------------------------|---------------|-----|------------------|
|--------------------------|---------------|-----|------------------|
|--------------------------|-3---0----0-2--|-3---|------------------|
|-0--0--0--0-0--0--0--0-0--|---------------|-----|-----5-5--5--5--5-|

"sad but true..."
|-----------------------|-----------------------|
|-----------------------|-----------------------|
|-----------------------|-3----3--0----0--0--0--|
|-0----0--3----3--3--0--|-----------------------|

|-----------------------|--------------------------|
|-----------------------|--------------------------|
|-----------------------|-3------------------------|
|-0----0--3----3--3--0--|--------------------------|

|-----------------------|-----------------------|
|-----------------------|-----------------------|
|-----------------------|-3----3--0----0--0--0--|
|-0----0--3----3--3--0--|-----------------------|


|-----------------------|---------------------------|
|-----------------------|---------------------------|
|-----------------------|-3----3--------------------|
|-0----0--3----3--3--0--|-----------3-3-3-3-3-3-3-3-|

INTRO

VERS

REFRAIN

INTRO

BREAK

BRIDGE
|--------------|--------------|--------------|--------------|x2|----------|
|--------------|--------------|--------------|--------------|  |----------|
|--------------|--------------|-3-3-3--------|-2-2-2--------|  |----------|
|-0-0-0--------|-3-3-3--------|--------------|--------------|  |-3--2--1--|

"we close our eyes and it happens every day"

|----------------|----------------|----------------|----------------|x2
|----------------|----------------|----------------|----------------|
|----------------|----------------|-3-3-3-3-3------|-2-2-2-2-2------|
|-0-0-0-0-0------|-3-3-3-3-3------|----------------|----------------|

OUTRO (its the same as the intro)

should be correct... if not, comment.
Добавлено: 02.04.2012
Другие материалы по этой песне:
  • Аккорды и текст

Страница создана 28.03.2012
http://primanota.ru/beatsteaks/indifferent-chords.htm
Привет, Гость.
Предлагаем пройти революционный курс по гитаре.
Подарок от PrimaNota.Ru, забирай!