PrimaNota.ru - самый крупный в мире бесплатный архив песенных текстов, аккордов, табулатур и нот


Beach House - Real Love - текст песни, таба, видео

Регистрация Запомнить меня
Войти через:  Facebook Google Twitter Vk Yandex Mail.ru

Beach House - Real Love - текст песни, таба, видео

Печатать
Просмотров: 183
Hello all, this is for the section that starts at around 3:43 seconds. The song is in G 
Minor, so there are probably different ways of playing the little riff here. Enjoy!


First section:

E----------------------------------------------------------|
B--------------------------6--8--6-----6--8----------------|
G--3--5--3--5--7 x11----------------7----------------------|
D----------------------------------------------------------|
A----------------------------------------------------------|
E----------------------------------------------------------| x1

Second section:

E----------------------------------------------------------|
B--------------------------6--8--6-----6--8----------------|
G--3--5--3--5--7 x3-----------------7----------------------|
D----------------------------------------------------------|
A----------------------------------------------------------|
E----------------------------------------------------------| Till ending
Добавлено: 28.11.2013
Другие материалы по этой песне:
  • Аккорды и текст

Страница создана 21.10.2013
http://primanota.ru/beach-house/real-love-chords.htm
Привет, Гость.
Предлагаем пройти революционный курс по гитаре.
Подарок от PrimaNota.Ru, забирай!