PrimaNota.ru - самый крупный в мире бесплатный архив песенных текстов, аккордов, табулатур и нот


Beach House - White Moon - таба, видео

Регистрация Запомнить меня
Войти через:  Facebook Google Twitter Vk Yandex Mail.ru

Beach House - White Moon - таба, видео

Печатать
Просмотров: 137
-------------------------------------------------------------------------------
                             WHITE MOON - BEACH HOUSE
-------------------------------------------------------------------------------
Tabbed by:Chris Warner
E-mail:cwarner3000@gmail.com


Arranged for one guitar, chords and fret numbers are relative to the capo.

Tuning:Standard EADGBe

Capo 7th Fret

Intro:
  F
e|------1-------1-------1-------1---------------------------------------------|
B|---1h3----1h3-----1h3-----1h3-----------------------------------------------|
G|-2------2-------2-------2---------------------------------------------------|
D|-3------3-------3-------3---------------------------------------------------|
A|----------------------------------------------------------------------------|
E|----------------------------------------------------------------------------|

  Dm              Am
e|------1-------1--0-------0------------------------------------------------|
B|---1h3----1h3-----1---1---1---1-------------------------------------------|
G|-2------2-----------2-------2---------------------------------------------|
D|-3------3-----------------------------------------------------------------|
A|-----------------0-------0------------------------------------------------|
E|--------------------------------------------------------------------------|

VERSE:
  F
e|------1-------1-------1-------1---------------------------------------------|
B|---1h3----1h3-----1h3-----1h3-----------------------------------------------|
G|-2------2-------2-------2---------------------------------------------------|
D|-3------3-------3-------3---------------------------------------------------|
A|----------------------------------------------------------------------------|
E|----------------------------------------------------------------------------|
  "Down the hill I looked so fast"

  Dm              Am
e|------1-------1--0-------0------------------------------------------------|
B|---1h3----1h3-----1---1---1---1-------------------------------------------|
G|-2------2-----------2-------2---------------------------------------------|
D|-3------3-----------------------------------------------------------------|
A|-----------------0-------0------------------------------------------------|
E|--------------------------------------------------------------------------|
  "Feel the moon, it doesnt last"

  F
e|------1-------1-------1-------1---------------------------------------------|
B|---1h3----1h3-----1h3-----1h3-----------------------------------------------|
G|-2------2-------2-------2---------------------------------------------------|
D|-3------3-------3-------3---------------------------------------------------|
A|----------------------------------------------------------------------------|
E|----------------------------------------------------------------------------|
  "Troubled boy and lucky girl"

  Dm              Am
e|------1-------1--0-------0------------------------------------------------|
B|---1h3----1h3-----1---1---1---1-------------------------------------------|
G|-2------2-----------2-------2---------------------------------------------|
D|-3------3-----------------------------------------------------------------|
A|-----------------0-------0------------------------------------------------|
E|--------------------------------------------------------------------------|
  "Bring me back into your world"

Verse 2
F
"Call your name when you are gone
Dm     Am
Longest night before the dawn
F
Hard to catch this side of you
Dm     Am
Do you want me two on two?"


Chorus

   F                            Dm                C
e|----------------------------------------------------0-------0-----------------|
B|-----1------1-------1-------1-------3------3------1--1----1---1---------------|
G|---2--2---2--2---2---2---2---2---2---2---2---3--0-------0-------0---X2--------|
D|-3------3------3-------3-------3-------3--------------------------------------|
A|------------------------------------------------3-------3---------------------|
E|------------------------------------------------------------------------------|
  "White moon beam on my back" x 4

  F     Am   Dm    C   F    Am   Dm    C
e|---1---------1---------1----------1-----------------------------------------------|
B|---1---------3---------1----------3-----------------------------------------------|
G|---2---------2---------2----------2-----------------------------------------------|
D|-3---3-----0---0--2--3---3-----0----0--2------------------------------------------|
A|-------0-3-------3---------0-3--------3-------------------------------------------|
E|----------------------------------------------------------------------------------|

(This is what she plays on keyboard during this part)
  F      Am    Dm    C     F     Am    Dm    C
e|-----1-----0-----1-----0-----1-----0-----1-----0------------------------------|
B|---1--1--1--1--3--3--1--1--1--1--1--1--3--3--1---1----------------------------|
G|-2------2-----2-----0-----2-----2-----2-----0---------------------------------|
D|------------------------------------------------------------------------------|
A|------------------------------------------------------------------------------|
E|------------------------------------------------------------------------------|

Verses 3- 4
F
"Feel inside, it's part of you
Dm       Am
And I'm wrong that it's confused
F
Hard to catch this side of you
Dm       Am
Do you want me to want you?"

F
Give you half but you want more
Dm       Am
Bring me back into your world
F
Feel inside, it's part of you
Dm       Am
And I'm wrong that it's confused

Chorus

   F                            Dm                C
e|----------------------------------------------------0-------0-----------------|
B|-----1------1-------1-------1-------3------3------1--1----1---1---------------|
G|---2--2---2--2---2---2---2---2---2---2---2---3--0-------0-------0---X2--------|
D|-3------3------3-------3-------3-------3--------------------------------------|
A|------------------------------------------------3-------3---------------------|
E|------------------------------------------------------------------------------|
  "White moon beam on your back" x 4

F      Am    Dm    C     F     Am    Dm    C
e|-----1-----0-----1-----0-----1-----0-----1-----0------------------------------|
B|---1--1--1--1--3--3--1--1--1--1--1--1--3--3--1---1----------------------------|
G|-2------2-----2-----0-----2-----2-----2-----0---------------------------------|
D|------------------------------------------------------------------------------|
A|------------------------------------------------------------------------------|
E|------------------------------------------------------------------------------|

  F     Am   Dm    C   F    Am   Dm    C
e|---1---------1---------1----------1-----------------------------------------------|
B|---1---------3---------1----------3-----------------------------------------------|
G|---2---------2---------2----------2-----------------------------------------------|
D|-3---3-----0---0--2--3---3-----0----0--2------------------------------------------|
A|-------0-3-------3---------0-3--------3-------------------------------------------|
E|----------------------------------------------------------------------------------|
"Shadow in the night I cannot promise you"
"No one knows where we dont go they never do"


Gm
e|-----3-----5-----6-----5-----3-------3----5-----6-----5------3----------------|
B|---3---3-----3-----3-----3-----3---3--3-----3-----3------3-----3--------------|
G|-3-------3-----3-----3-----3-----3------3-----3-----3------3------------------|
D|------------------------------------------------------------------------------|
A|------------------------------------------------------------------------------|
E|------------------------------------------------------------------------------|
 "Sing to me goodbyes, the night a soft disguise, the dead is not due.."

F      Am    Dm    C     F     Am    Dm    C
e|-----1-----0-----1-----0-----1-----0-----1-----0------------------------------|
B|---1--1--1--1--3--3--1--1--1--1--1--1--3--3--1---1----------------------------|
G|-2------2-----2-----0-----2-----2-----2-----0---------------------------------|
D|------------------------------------------------------------------------------|
A|------------------------------------------------------------------------------|
E|------------------------------------------------------------------------------|
"The dead is not due"

Bridge
  Bbmaj7                          Cadd6
e|-----5-------5-------5-------5--------5--------5-------5-------5-------------|
B|---3---3---3---3---3---3---3---3----5---5---5---5---5---5---5---5------------|
G|-3-------3-------3-------3--------5-------5-------5-------5------------------|
D|-----------------------------------------------------------------------------|
A|-1-------1-------1-------1--------3-------3-------3-------3------------------|
E|-----------------------------------------------------------------------------|
"Shifting dreams, not what it seems, its never is"
  Bbmaj7                          Cadd6
e|-----5-------5-------5-------5--------5--------5-------5-------5-------------|
B|---3---3---3---3---3---3---3---3----5---5---5---5---5---5---5---5------------|
G|-3-------3-------3-------3--------5-------5-------5-------5------------------|
D|-----------------------------------------------------------------------------|
A|-1-------1-------1-------1--------3-------3-------3-------3------------------|
E|-----------------------------------------------------------------------------|
"The sun will always rise it says it promises"

  Bbmaj7                          Cadd6
e|-----5-------5-------5-------5--------5--------5-------5-------5-------------|
B|---3---3---3---3---3---3---3---3----5---5---5---5---5---5---5---5------------|
G|-3-------3-------3-------3--------5-------5-------5-------5------------------|
D|-----------------------------------------------------------------------------|
A|-1---1---1---1---1---1---1---1----3---3---3---3---3---3---3---3--------------|
E|-----------------------------------------------------------------------------|
"Shifting dreams, not what it seems its never true"
   Bbmaj7                          Cadd6
e|-----5-------5-------5-------5--------5--------5-------5-------5-------------|
B|---3---3---3---3---3---3---3---3----5---5---5---5---5---5---5---5------------|
G|-3-------3-------3-------3--------5-------5-------5-------5------------------|
D|-----------------------------------------------------------------------------|
A|-1---1---1---1---1---1---1---1----3---3---3---3---3---3---3---3--------------|
E|-----------------------------------------------------------------------------|
"No one knows where we will go they never do"


Outro
  F               Dm       C
e|-8---5-----------5-----------------8---------------------------------------|
B|---------8---6-------6---5-----------repeat-X3-----------------------------|
G|---5---5---5---5---5---5---5----5------------------------------------------|
D|------------------------------5--------------------------------------------|
A|---------------------------------------------------------------------------|
E|---------------------------------------------------------------------------|

  F               Dm       C           F
e|-8---5-----------5--------------------5----------------------------------------|
B|---------8---6-------6---5------------6----------------------------------------|
G|---5---5---5---5---5---5---5----5-----5----------------------------------------|
D|------------------------------5------------------------------------------------|
A|-------------------------------------------------------------------------------|
E|-------------------------------------------------------------------------------|
************************************

| /   slide up
| \   slide down
| h   hammer-on
| p   pull-off
| ~   vibrato
| +   harmonic
| x   Mute note
| b   Bend
| pb  Pre-bend
| br  Bend release
| pbr Pre-bend release
| brb Bend release bend

************************************
Добавлено: 20.01.2014
Другие материалы по этой песне:

Страница создана 20.01.2014
http://primanota.ru/beach-house/white-moon-chords.htm
Привет, Гость.
Предлагаем пройти революционный курс по гитаре.
Подарок от PrimaNota.Ru, забирай!