PrimaNota.ru - самый крупный в мире бесплатный архив песенных текстов, аккордов, табулатур и нот


Beach House - Troublemaker - таба, видео

Регистрация Запомнить меня
Войти через:  Facebook Google Twitter Vk Yandex Mail.ru

Beach House - Troublemaker - таба, видео

Печатать
Просмотров: 113
Tabbed by: Rob "guerrero de cartón" Ferrín

Intro: (Sintetizador adaptado a guitarra)
e|------------------------------|
B|--------5--------5----3-------|
G|-----5--------4-------2-------|
D|--7--------5----------3-------| X2
A|------------------------------|
E|------------------------------|

00:16
e|---------------------------------------|
B|---------------------------------------|
G|---------------9----9/--7---7---7---7/-|
D|----7---7------------------------------| X2
A|----------7/10---10---8---8---8---8----|
E|--5---5--------------------------------|

00:27
e|-----------------------------------------------|
B|-----------------------------------------------|
G|-----14----14----14----14/---9----9----9----9/-|
D|-----------------------------------------------|
A|--15----15----15----15----10---10---10---10----|
E|-----------------------------------------------|

00:32
e|---------------------------------------|
B|---------------------------------------|
G|----7---7/---9----9/--7---7/---9----9--| (Repetir todo durante verso)
D|---------------------------------------|
A|--8---8---10---10---8---8---10---10----|
E|---------------------------------------|

Verso:
Am       Em               Dm 
  Like a hand you reached out to me
Am            Em            Dm
  The thunder rolls in with the dark
Am                    Em
  Tiny fingers on the edges
Dm           Em    Dm        Em
  Watch it unravel...pulling everything apart


Am    Em    Dm      Am    Em    Dm
  Aaaaahaahahaaah...  Aaaaahaahahaaah...
Am          Em      Dm  Em  Dm  Em
  Aaaaahaahahaaah...

Am       Em              Dm
  In the night we stay to..gether
Am              Em         Dm
  The walls are shaking in their skin
Am                          Em
  Does it become you troublemaker
Dm             Em       Dm         Em
  Watch them unravel you...Pulling everything

1:43
    Am          G           F           Em
e|-------------------------------------------------|
B|-------------------------------------------------|
G|-----14----14----12----12----10----10----9----9--|
D|-------------------------------------------------|
A|--15----15----14----14----12----12----10---10----|
E|-------------------------------------------------|
   apaaaaaaaaaaaaaaaaaaaaaaaaaaaaaaaaaaaaaaaaaart

Coro:
    Dm          C       Bb      Am
e|-----10----10---8---8---6---8---5---5--|
B|---------------------------------------|
G|--10----10----9---9---7---7---5---5----|
D|---------------------------------------|
A|---------------------------------------|
E|---------------------------------------|
    Some........day     out of the blue it will

  Dm   C   Bb   Am
  find you
  Dm    C     Bb       Am        Dm   C   Bb   Am
  Al....ways, always a face to remind me

2:10
    Am      G       F       Em
e|----5---5---3---3---1---1---0---0--|
B|-----------------------------------|
G|--5---5---4---4---2---2---0---0----|
D|-----------------------------------|
A|-----------------------------------|
E|-----------------------------------|
        Someone like you

    Am      G       F       Em
        Someone like you

    Am      G       F
        Someone like you

2:28
(Sintetizador adaptado a guitarra)
e|------------------------------|
B|--------5--------5----3-------|
G|-----5--------4-------2-------|
D|--7--------5----------3-------| X2
A|------------------------------|
E|------------------------------|

Esto toca la guitarra:
e|------------------------------|
B|------------------------------|
G|------------------------------|
D|------------------------------| X2
A|--------------7/------0-------|
E|------------------------------|

Verso 2:
Am              Em                 Dm 
  You watch the shape these things are taking
Am       Em              Dm
  Do you cry out in your sleep
Am                               Em
  Does it become you when you're under
Dm              Em       Dm          Em
  Your heart is racing you're taking everything too hard

Am         Em    Dm
  When you walk away
Am    Em      Dm
  You show me how
Am             Em
  Come pull me under

3:18
    Am          G           F           Em
e|-------------------------------------------------|
B|-------------------------------------------------|
G|-----14----14----12----12----10----10----9----9--|
D|-------------------------------------------------|
A|--15----15----14----14----12----12----10---10----|
E|-------------------------------------------------|


Coro 2:
Dm  C   Bb         Am           Dm   C   Bb   Am
Someday out of the blue it will find you
Dm    C     Bb       Am        Dm   C   Bb   Am
Al....ways, always a face to remind me
Am    G        F   Em
  Someone like you
Am    G        F   Em
  Someone like you
Am    G        F   Em    Am   G   F   Em
  Someone like   youuuuuuuuuuuuuuuu

Am  G   F          Em           Am   G   F   Em
Someday out of the blue it will find you
Am    G     F        Em        Am   G   F   Em
Al....ways, always a face to remind me

Outro:
    C      G       F     Em      C     G       F     Em      C
e|--------------------------------------------------------------|
B|--------------------------------------------------------------|
G|--7/9--7/9--12/9-9---7/9--12/9-9---7/9--12/9-9---7/9--12/9-9--|
D|--------------------------------------------------------------|
A|--5/7--5/7--10/7-7---5/7--10/7-7---5/7--10/7-7---5/7--10/7-7--|
E|--------------------------------------------------------------|

http://guerrerosdecarton.bandcamp.com/
Добавлено: 03.06.2013
Другие материалы по этой песне:
  • Аккорды и текст

Страница создана 03.06.2013
http://primanota.ru/beach-house/troublemaker-chords.htm
Привет, Гость.
Предлагаем пройти революционный курс по гитаре.
Подарок от PrimaNota.Ru, забирай!