PrimaNota.ru - самый крупный в мире бесплатный архив песенных текстов, аккордов, табулатур и нот


Battle Beast - Into The Heart Of Danger - таба, видео

Регистрация Запомнить меня
Войти через:  Facebook Google Twitter Vk Yandex Mail.ru

Battle Beast - Into The Heart Of Danger - таба, видео

Печатать
Просмотров: 71
                BATTLE BEAST - INTO THE HEART OF DANGER
                      TAB BY DRAGONSLAYER


INTRO

e----------------------------------------------------------|
b----------------------------------------------------------|
g-----7----7-3---3-3---5-5--5-------7----------------------|
d-----7----7-3---3-3---5-5--5-------7----------------------|
a-----5----5-1---1-1---3-3--3-------5----------------------|
e----------------------------------------------------------|

e---------/17-15-----17-15-------/20-17--------------------|
b----------------18--------18-17---------------------------|
g----------------------------------------------------------|
d----------------------------------------------------------|
a----------------------------------------------------------|
e----------------------------------------------------------|

e----------------------------------------------------------|
b-------/15--17-^17-^17-17-15------------------------------|
g------------------------------/17--19/14------------------|
d----------------------------------------------------------|
a----------------------------------------------------------|
e----------------------------------------------------------|

e----------------------------------------------------------|
b----------------------------------------------------------|
g------/15-14-15-17-14-17----^19---------------------------|
d----------------------------------------------------------|
a----------------------------------------------------------|
e----------------------------------------------------------|

e----------------------------------------------------------|
b-----(PALM MUTING)----------------------------------------|
g---7------------------------------------------------------|
d---7------------------------------------------------------|
a---5-5-5-5-5-5-5-5-5-5-5-5-5-5-5-5-5-5-5-5-5-5-5-5-5-5-5--|
e----------------------------------------------------------|


VERSE 1

e----------------------------------------------------------|
b----------------------------------------------------------|
g-----7-7-5---7----3-3-3---5-----7-7-5--7--2--3--10---5-5--|
d-----7-7-5---7----3-3-3---5-----7-7-5--7--2--3--10---5-5--| X2
a-----5-5-3---5----1-1-1---3-----5-5-3--5--0--1--8----3-3--|
e----------------------------------------------------------|

e----------------------------------------------------------|
b------------(Palm muting)---------------------------------|
g----------------------------------------------------------|
d----------------------------------------------------------|
a----3-------5---------7---------8-------------------------|
e------5-4---3-3-3-3-3-5-5-5-5-5-6-6-6-6-6-6---------------|

e----------------------------------------------------------|
b-----------(Palm muting)----------------------------------|
g----------------------------------------------------------|
d-------------------------------------------10-------------|
a-----------5---------7---------8-----------10-------------|
e----8-5-4--3-3-3-3-3-5-5-5-5-5-6-6-6-6-6---8--------------|

CHORUS
e----------------------------------------------------------|
b----------------------------------------------------------|
g-----7----7-3---3-3---5---5-5------7----------------------|
d-----7----7-3---3-3---5---5-5------7----------------------|   x3
a-----5----5-1---1-1---3---3-3------5----------------------|
e----------------------------------------------------------|

e-----------------------|
b-----------------------|
g-----3----5-----7------|
d-----3----5-----7------| (At the end of the chorus)
a-----1----3-----5------|
e-----------------------|


VERSE 2 (REPEAT VERSE 1)

REPEAT CHORUS x3

PRE SOLO 

e----------------------------------------------------------|
b----------------------------------------------------------|
g---------7--------3-------5---------7--7--------3----5----|
d---------7--------3-------5---------5--7--------3----5----|
a---------5--------1-------3---------5--5--------1----3----|
e----------------------------------------------------------|


e----------------------------------|
b----------------------------------|
g---------7--(7)-----3-------5-----|
d---------7--(7)-----3-------5-----| X4
a---------5--(5)-----1-------3-----|
e----------------------------------|

PRE SOLO "LEAD GUITAR" (Listen the song to play this part)

e--------------------------------------------------------------------------------------
b--------------------------------------------------------------------------------------
g----7--7-7-7---14-14-14-14---12--12--10--10--10--10--12---5--5--5--5--5--5------------
d----X--X-X-X---X--X--X--X----X---X---X---X---X---X---x----X--X--X--X--X--X------------
a----5--5-5-5---12-12-12-12---10--10--8---8---8---8---10---3--3--3--3--3--3------------
e--------------------------------------------------------------------------------------


e--------------------------------------------------------------------------------------
b--------------------------------------------------------------------------------------
g----7--7---14--14---17--17--19-19-19-19--22--21-21--17--17-17-------------------------
d----X--X---X---X----X---X---X--X--X--X---X---X--X---X---X--X--------------------------  X3
a----5--5---12--12---15--15--17-17-17-17--20--19-19--15--15-15-------------------------
e--------------------------------------------------------------------------------------

----(Last time)-------
----------------------
----24-24-------------
----X--X--------------  
----22-22-------------
----------------------


SOLO (Rythm)

e----------------------------------|
b----------------------------------|
g---------7--(7)-----3-------5-----|
d---------7--(7)-----3-------5-----| X2
a---------5--(5)-----1-------3-----|
e----------------------------------|

VERSE 3

e----------------------------------------------------------|
b------------(Palm muting)---------------------------------|
g----------------------------------------------------------|
d----------------------------------------------------------|
a----3-------5---------7---------8-------------------------|
e------5-4---3-3-3-3-3-5-5-5-5-5-6-6-6-6-6-6---------------|

e----------------------------------------------------------|
b-----------(Palm muting)----------------------------------|
g----------------------------------------------------------|
d-------------------------------------------10-------------|
a-----------5---------7---------8-----------10-------------|
e----8-5-4--3-3-3-3-3-5-5-5-5-5-6-6-6-6-6---8--------------|

FINAL CHORUS

REPEAT VERSE INTRO PART


^^
Добавлено: 04.12.2015
Другие материалы по этой песне:
  • Аккорды и текст

Страница создана 04.12.2015
http://primanota.ru/battle-beast/into-heart-of-danger-chords.htm
Привет, Гость.
Предлагаем пройти революционный курс по гитаре.
Подарок от PrimaNota.Ru, забирай!