PrimaNota.ru - самый крупный в мире бесплатный архив песенных текстов, аккордов, табулатур и нот


Battle Beast - Black Ninja - таба, видео

Регистрация Запомнить меня
Войти через:  Facebook Google Twitter Vk Yandex Mail.ru

Battle Beast - Black Ninja - таба, видео

Печатать
Просмотров: 259
                                 Battle Beast - Black Ninja
                                            Tab
                                       by dragonslayer

Intro

E-|-------------------------------------|---------------------------------------------------|
B-|-------------------------------------|---------------------------------------------------|
G-|--------------------------------7----|--------------------------------------7------------|
D-|-----9--9-7-9-----7-9-10-9-7----7----|-----5^7-9--9-7-9-------7^9-5-4-5-----7------------|  
A-|-----7--7-7-7-----7-7-7--7-7----5----|-----5-5-7--7-7-7-------7-7-3-3-3-----5------------|
E-|-------------------------------------|---------------------------------------------------|   

E-|-------------------------------------|---------------------------------------------------|
B-|-------------------------------------|---------------------------------------------------|
G-|--------------------------------7----|--------------------------------------7------------|
D-|-----9--9-7-9-----7-9-10-9-7----7----|-----5^7-9--9-7-9-------7^9-5-4-5-----7-----2------|  
A-|-----7--7-7-7-----7-7-7--7-7----5----|-----5-5-7--7-7-7-------7-7-3-3-3-----5-----2------|
E-|-------------------------------------|--------------------------------------------0------|

Verse (With palm mute)

E----------------------------------------------------------------------------------------------|
B----------------------------------------------------------------------------------------------|
G---5--5-5-5--5-5---------------7--7-7-7--7-7---------------------5--5-5-5----------7-7-7---4--|
D---5--5-5-5--5-5-5--5-5-5--5-5-7--7-7-7--7-7-2--2-2-2--/5-4-2----5--5-5-5-5--5-5-5-7-7-7---4--|
A---3--3-3-3--3-3-5--5-5-5--5-5-5--5-5-5--5-5-2--2-2-2---------5--3--3-3-3-5--5-5-5-5-5-5---2--|
E-----------------3--3-3-3--3-3---------------0--0-0-0---------------------3--3-3-3------------|

Chorus (Repeat the intro part) x2

Verse 2 (Palm Muting some notes)

E----------------------------------------------------------------------------------------------|
B----------------------------------------------------------------------------------------------|
G---5--5-5-5--5-5---------------7--7-7-7--7-7---------------------5--5-5-5----------7-7-7---4--|
D---5--5-5-5--5-5-5--5-5-5--5-5-7--7-7-7--7-7-2--2-2-2--/5-4-2----5--5-5-5-5--5-5-5-7-7-7---4--|
A---3--3-3-3--3-3-5--5-5-5--5-5-5--5-5-5--5-5-2--2-2-2---------5--3--3-3-3-5--5-5-5-5-5-5---2--|
E-----------------3--3-3-3--3-3---------------0--0-0-0---------------------3--3-3-3------------|

Pre-Solo

E------------------|---------------------------------|-------------------------|
B------------------|---------------------------------|--------------12b-12-----|
G---12-12-11-------|---11-11--/14-12^14^11\9/12\9----|---11b-11----------------|
D------------12-9--|---------------------------------|-------------------------|
A------------------|---------------------------------|-------------------------|
E------------------|---------------------------------|-------------------------|

E---/12-12----12-10---12-10---------|---------------------------------|
B---------------------------12-10---|-------------------12------------|
G-----------------------------------|--/12-14---12-14-----14-12-------|
D-----------------------------------|---------------------------14----|
A-----------------------------------|---------------------------------|
E-----------------------------------|---------------------------------|

E------------------/15-14--14-15-----/17--14-----|
B------------------------17----------------------|
G---/12-11---------------------------------------|
D----------14------------------------------------|
A------------------------------------------------|
E------------------------------------------------|

Solo

Final Chorus x 2

Final Solo




"Listen the song for the time picking"

^ = Hammer On
/ = Slide
b = bend



(Dedicado a Jana) 
Добавлено: 15.08.2015
Вам также может быть интересно:
Другие материалы по этой песне:
  • Аккорды и текст

Страница создана 15.08.2015
http://primanota.ru/battle-beast/black-ninja-chords.htm
Привет, Гость.
Предлагаем пройти революционный курс по гитаре.
Подарок от PrimaNota.Ru, забирай!