PrimaNota.ru - самый крупный в мире бесплатный архив песенных текстов, аккордов, табулатур и нот


Bad Religion - New Leaf - текст песни, таба, бас-таба, видео

Регистрация Запомнить меня
Войти через:  Facebook Google Twitter Vk Yandex Mail.ru

Bad Religion - New Leaf - текст песни, таба, бас-таба, видео

Печатать
Просмотров: 155
----------------------------------------------------------------------------
                             NEW LEAF - Bad Religion
----------------------------------------------------------------------------
Tabbed by: Crystal

This song can be found on their 1984 album Back to the Known, as well as compilation album 80-85.

Tuning: Standard

Intro/Verses:
0:00
e|----------------------------------------|
B|----------------------------------------|
G|-777---------777------------------------|
D|-777--7------777--2---------------------| X2
A|-555--7------555--2---------------------|
E|------5-----------0---------------------|

0:14
e|-------------------------------------------------------------------|
B|-------------------------------------------------------------------|
G|-777------------------------777------------------------------------|
D|-777--7777777777777777------777--22222222222222222-----------------| X2
A|-555--7777777777777777------555--22222222222222222-----------------|
E|------5555555555555555-----------00000000000000000-----------------|

Lyrics:
When everybody dies around you, from someone else's gun,
It really makes you stop and think about the years to come.
Something good had to happen to the human race.
We all had better stop hoping and set our heads on straight.

Chorus
0:46
e|-------------------------------------------------------------------|
B|-------------------------------------------------------------------|
G|-55------------------------55--------77777777----5-----------------|
D|-55--555---77777777--------55--555---77777777----5--5--2-----------|
A|-33--555---77777777--------33--555---55555555----3--5--2-----------|
E|-----333---55555555------------333------------------3--0-----------|

You've gotta turn over a new leaf,
'Cause that old one's turning on you.
We've gotta turn over a new leaf.
If the future's only hoped for, we are doomed.

Repeat intro/verse riffs

Today is over, it's already shot, so we can think about ourselves.
They keep on working on our nature, they're saying that can only help.
Start throwing out your pockets, keep what you really only need.
Save life and earth and water, there can't be any other need.

Repeat Chorus riffs

couldnt figure out the solo! Will add when I have the time :)

Добавлено: 20.06.2012
Другие материалы по этой песне:
  • Аккорды и текст

Страница создана 11.03.2012
http://primanota.ru/bad-religion/new-leaf-chords.htm
Привет, Гость.
Предлагаем пройти революционный курс по гитаре.
Подарок от PrimaNota.Ru, забирай!