PrimaNota.ru - самый крупный в мире бесплатный архив песенных текстов, аккордов, табулатур и нот


Bad Religion - Oligarchy - текст песни, таба, видео

Регистрация Запомнить меня
Войти через:  Facebook Google Twitter Vk Yandex Mail.ru

Bad Religion - Oligarchy - текст песни, таба, видео

Печатать
Просмотров: 122
-------------------------------------------------------------------------------
Oligarchy - Bad Religion
How Could Hell Be Any Worse?
-------------------------------------------------------------------------------
Tabbed by: Matthew Holmes
Email: holmzito@yahoo.com

Tuning: EADGBE (Standard)

e|----------------------|
B|------8-8-8-----------|
G|-7--7-7-7-7-8--X-5----|
D|-5--5-5-5-5-6--X-3----|
A|----------------------|
E|----------------------| x22

e|-------------------------------------------------|
B|------8-8-8--------------------------------------|
G|-7--7-7-7-7-8--X-5-----7--7----7--7--7--7--7--7--|
D|-5--5-5-5-5-6--X-3-----5--5----5--5--5--5--5--5--|
A|-------------------------------------------------|
E|-------------------------------------------------|

e|---------------------------|     e|-7-7-7-7-7-7-7-7-5-5-5-5-5-5-5-5-|
B|-------10-10-10------------|     B|-5-5-5-5-5-5-5-5-3-3-3-3-3-3-3-3-|
G|-9---9--9--9--9-10--X-7----|     G|---------------------------------|
D|-7---7--7--7--7--8--X-5----|     G|---------------------------------|
A|---------------------------|     G|---------------------------------|
E|---------------------------| x5  G|---------------------------------| x3

e|-7-7-7-7-7-7-7-7-7-7-7-7-7-7-7-7-10-10-10----|
B|-5-5-5-5-5-5-5-5-5-5-5-5-5-5-5-5--8--8--8----|
G|---------------------------------------------|
D|---------------------------------------------|
A|---------------------------------------------|
E|---------------------------------------------|

e|------------------------------------------------------------------------------|
B|------------------------------------------------------------------------------|
G|-9--9-9----7--7-7----9--9-9----7--7-7----9--9-9----7--7-7----9--9--9--9--9----|
D|-7--7-7----5--5-5----7--7-7----5--5-5----7--7-7----5--5-5----7--7--7--7--7----|
A|------------------------------------------------------------------------------|
E|------------------------------------------------------------------------------|


| /  slide up
| \  slide down
| h  hammer-on
| p  pull-off
| ~  vibrato
| +  harmonic
| x  Mute note
===============================================================================
Добавлено: 17.06.2012
Другие материалы по этой песне:
  • Аккорды и текст

Страница создана 17.06.2012
http://primanota.ru/bad-religion/oligarchy-chords.htm
Привет, Гость.
Предлагаем пройти революционный курс по гитаре.
Подарок от PrimaNota.Ru, забирай!