PrimaNota.ru - самый крупный в мире бесплатный архив песенных текстов, аккордов, табулатур и нот


Bad Religion - Parallel - аккорды и текст, таба, видео

Регистрация Запомнить меня
Войти через:  Facebook Google Twitter Vk Yandex Mail.ru

Bad Religion - Parallel - аккорды и текст, таба, видео

Печатать
Просмотров: 160
Parallel
Bad Religion
Title:   Parallel
Artist: Bad Religion
Album:  The Gray Race (1996 Atlantic Records)

Transcribed by:
Anthony Carl
http://anthonycarl.com/
phatboy'at'phlygrrl.org

Standard Tuning

Intro Riff
E|----8--------8--------8--|-----------x--x--x--
B|-------8--------8--------|-----------x--x--x--
G|-8--------8--------8-----|-----------x--x--x--
D|-------------------------|--5--5--5--x--x--x--
A|-------------------------|--5--5--5--x--x--x--
E|-------------------------|--3--3--3--x--x--x--
  |-----------x4------------|

Riff A

E---------------------------
B---------------------------
G--5--5--5--5--------10-10--
D--5--5--5--5--6--6--10-10--
A--3--3--3--3--6--6--8--8---
E--------------4--4---------

Riff B

E--------------------------------------------------
B--------------------------------------------------
G--5--5--5--5--------10-10-5--5--5--5--------10----
D--5--5--5--5--6--6--10-10-5--5--5--5--6--6--10-8--
A--3--3--3--3--6--6--8--8--3--3--3--3--6--6--8--8--
E--------------4--4--------------------4--4-----6--

Riff C

E--------------------------
B--------------------------
G--5--5--5--5--8--8--------
D--5--5--5--5--8--8--8--8--
A--3--3--3--3--6--6--8--8--
E--------------------6--6--

Riff D

E---------------------------
B---------------------------
G--5--5--5--5--------10-10--
D--5--5--5--5--8--8--10-10--
A--3--3--3--3--8--8--8--8---
E--------------6--6---------

Riff Chorus

E|----------------------------|----------------------
B|----------------------------|----------------------
G|-5-x-5----------------------|-5-x-5----------------
D|-5-x-5--5-x-5-/-6--5--x-x-x-|-5-x-5-5-x-5-/-6-/-8--
A|-3-x-3--5-x-5-/-6--5--x-x-x-|-3-x-3-5-x-5-/-6-/-8--
E|--------3-x-3-/-4--3--x-x-x-|-------3-x-3-/-4-/-6--
  |-------------x3-------------|

Riff E

E|-------------------------
B|-------------------------
G|-------------------------
D|-6--6--8--8--9--9--9--9--
A|-6--6--8--8--9--9--9--9--
E|-4--4--6--6--7--7--7--7--
PM------------------------|

Riff F

E|-------------------------------------------------
B|-------------------------------------------------
G|-------------------------6--6--------8--8--------
D|-6--6--8--8--9--9--4--4--6--6--6--6--8--8--8--8--
A|-6--6--8--8--9--9--4--4--4--4--6--6--6--6--8--8--
E|-4--4--6--6--7--7--2--2--------4--4--------6--6--

Riff G

E|-------------------------
B|-------------------------
G|-------------------------
D|-10-10-8--8--6--6--5--5--
A|-10-10-8--8--6--6--5--5--
E|-8--8--6--6--4--4--3--3--

Riff Outro

E|----------------------------|-------------------------|-------
B|----------------------------|-------------------------|-------
G|-5-x-5----------------------|--5--5-------------------|--5-\--
D|-5-x-5--5-x-5-/-6--5--x-x-x-|--5--5--5--5--6--6--5--5-|--5-\--
A|-3-x-3--5-x-5-/-6--5--x-x-x-|--3--3--5--5--6--6--5--5-|--3-\--
E|--------3-x-3-/-4--3--x-x-x-|--------3--3--4--4--3--3-|----\--
  |------------x6--------------|-----------x2------------|



Song Sequence:
**Intro**
Riff Intro

Riff A x 2

**Verse**
Riff B x 2

**Pre-Chorus**
Riff C x 1
Riff D x 4

**Chorus**
Riff Chorus

Riff A x 2

**Verse**
Riff B x 2

**Pre-Chorus**
Riff C x 1
Riff D x 4

**Chorus**
Riff Chorus

**Bridge**
Riff E x 2
Riff F x 1
Riff G x 4

**Outro**
Riff D x 4
Riff Outro

     
Добавлено: 04.06.2013
Другие материалы по этой песне:

Страница создана 06.05.2012
http://primanota.ru/bad-religion/parallel-chords.htm
Привет, Гость.
Предлагаем пройти революционный курс по гитаре.
Подарок от PrimaNota.Ru, забирай!