PrimaNota.ru - самый крупный в мире бесплатный архив песенных текстов, аккордов, табулатур и нот


Bad Religion - Hello Cruel World - текст песни, таба, видео

Регистрация Запомнить меня
Войти через:  Facebook Google Twitter Vk Yandex Mail.ru

Bad Religion - Hello Cruel World - текст песни, таба, видео

Печатать
Просмотров: 140
Авторы музыки: Greg Graffin, Brett Gurewitz
Авторы текста: Greg Graffin, Brett Gurewitz
-------------------------------------------------------------------------------
                      HELLO CRUEL WORLD - Bad Religion
-------------------------------------------------------------------------------
Tabbed by: Gary H.
E-mail: N/A (Private message me if necessary)

Tuning: Standard (EADGBe)
Album: True North

I think there may be three guitars in this song. Two guitars play over each other
in the intro and verses, as seen in Figure 1. and Figure 2., and these two figures
are played while the solo is being played (I think). The solo is quite tricky
to decipher.
It is the best I can come up with for this tab! Anyway, this is how I play it.

N.B. I am unsure about the pinch harmonic in the solo; but it is what sounded closest
after playing around with it (it sounds quite like it if you pinch the harmonic
nearer the bridge).

Structure:
Intro
Verse
Chorus
Verse
Chorus
Solo
Chorus


    Figure 1. (Guitar 1)
 |----------------------------------------|
e|----------------------------------------|
B|----------------------------------------|
G|-7-9-9-9-9-9-9-9-9-9-9-9/12-12-11-11-11-| Repeat as many
D|-x-x-x-x-x-x-x-x-x-x-x-x--x-x--x--x--x--| times as
A|-5-7-7-7-7-7-7-7-7-7-7-7/10-10-9--9--9--| necessary.
E|----------------------------------------|


     Figure 2. (Guitar 2)
   |----------------------------------|
e|------------------------------------|
B|------------------------------------|
G|-7-9-9-9-9-9-9-9-9-5-5-5-5-7-7-7----| Repeat as many
D|-7-9-9-9-9-9-9-9-9-5-5-5-5-7-7-7----| times as
A|-5-7-7-7-7-7-7-7-7-3-3-3-3-5-5-5----| necessary.
E|------------------------------------|

Figure 1. and Figure 2. are played together through the intro and the verses. Play with 
very slight palm muting.



Chorus:

e|-7-7-7-7-7-7-7-7-----------------7-7-7-7-7-7-7-7----------------|
B|-8-8-8-8-8-8-8-8-----------------8-8-8-8-8-8-8-8----------------|
G|-9-9-9-9-9-9-9-9-5-5-5-5-7-7-7-7-9-9-9-9-9-9-9-9--6-6-6-6-4-4-4-|
D|-9-9-9-9-9-9-9-9-5-5-5-5-7-7-7-7-9-9-9-9-9-9-9-9--7-7-7-7-5-5-5-|
A|-7-7-7-7-7-7-7-7-3-3-3-3-5-5-5-5-7-7-7-7-7-7-7-7--7-7-7-7-5-5-5-|
E|-x-x-x-x-x-x-x-x-----------------x-x-x-x-x-x-x-x--5-5-5-5-3-3-3-|

e|-7-7-7-7-7-7-7-7-----------------7-7-7-7-7-7-7-7----------------|
B|-8-8-8-8-8-8-8-8-----------------8-8-8-8-8-8-8-8----------------|
G|-9-9-9-9-9-9-9-9-----------------9-9-9-9-9-9-9-9--5-5-5-x-7-7-7-|
D|-9-9-9-9-9-9-9-9-5-5-5-5-7-7-7-7-9-9-9-9-9-9-9-9--5-5-5-x-7-7-7-|
A|-7-7-7-7-7-7-7-7-5-5-5-5-7-7-7-7-7-7-7-7-7-7-7-7--3-3-3-x-5-5-5-|
E|-x-x-x-x-x-x-x-x-3-3-3-3-5-5-5-5-x-x-x-x-x-x-x-x----------------|

e|-7-7-7-7-7-7-7-7-----------------7-7-7---7-7-7-7-----------------|
B|-8-8-8-8-8-8-8-8-----------------8-8-8---8-8-8-8-----------------|
G|-9-9-9-9-9-9-9-9-6-6-6-x-4-4-4-x-9-9-9-x-9-9-9-9--6-6-6-6-4-4-4--|
D|-9-9-9-9-9-9-9-9-7-7-7-x-5-5-5-x-9-9-9-x-9-9-9-9--7-7-7-7-5-5-5--|
A|-7-7-7-7-7-7-7-7-7-7-7-x-5-5-5-x-7-7-7-x-7-7-7-7--7-7-7-7-5-5-5--|
E|-x-x-x-x-x-x-x-x-5-5-5-x-3-3-3-x-x-x-x-x-x-x-x-x--5-5-5-5-3-3-3--|
 |                                                                 |
 |                                                                 |
e|-----------------------------------------------------------------|
B|-----------------------------------------------------------------|
G|-----------------------------------------7-----------------------|
D|--------------------------------------------9-11-----------------|
A|-----------------------------------------------------------------|
E|-----------------------------------------------------------------|

e|-7-7-7-7-7-7-7-7-----------------2-2-2-2-2-2-2-2-----------------|
B|-8-8-8-8-8-8-8-8-----------------4-4-4-4-4-4-4-4-----------------|
G|-9-9-9-9-9-9-9-9-----------------2-2-2-2-2-2-2-2-----------------|
D|-9-9-9-9-9-9-9-9-5-5-5-5-7-7-7-7-4-4-4-4-4-4-4-4-----------------|
A|-7-7-7-7-7-7-7-7-5-5-5-5-7-7-7-7-2-2-2-2-2-2-2-2-----------------|
E|-x-x-x-x-x-x-x-x-3-3-3-3-5-5-5-5-x-x-x-x-x-x-x-x-----------------|



SOLO: (Figure 1. and Figure 2. played over this). A lot of this is played very fast so 
you need to listen very carefully to the record.

e|-17\15p12---------------------------------------------------------|
B|------------12-14-14/15-14-15-15b(17)-15-14-12\10b~---------------|
G|------------------------------------------------------------------|
D|----------------------------------------------------12b(14)r(12)~-|
A|------------------------------------------------------------------|
E|------------------------------------------------------------------|

e|------------------------------5----------------------------------------|
B|--------------------8p5-5-5h8---h8p5-----------------------------------|
G|-------------------------------------9p7----------7-4------------------|
D|-11h12p11h12\9---------------------------h9-7b(8)-----7p5-7b-19b(P.H.)-|
A|-----------------------------------------------------------------------|
E|---------------12\-----------------------------------------------------|

e|-------------------------------------------------------------10--------|
B|-----------------------------------------------8---8-10b(12)===-10p8-8-|
G|---------------------------------------------9---9---------------------|
D|---------7p5-7b(8)r(7)b(8)r(7)b(8)-5---5-7-9---------------------------|
A|-7p5-7p5-----------------------------7---------------------------------|
E|-----------------------------------------------------------------------|

e|---------10-12-14-12-17-12-15-12-17-12-15-12-17-12-19----17-12-15-12-|
B|-10b(12)===-------------------------------------------17-------------|
G|---------------------------------------------------------------------|
D|---------------------------------------------------------------------|
A|---------------------------------------------------------------------|
E|---------------------------------------------------------------------|

e|---------------|
B|-17b(18)r(17)~-|
G|---------------|
D|---------------|
A|---------------|
E|---------------|


Lyrics:

I can't stop the way I feel,
But I can penetrate your religion with a nail.
You are mine and we are twine.
When we radiate in waves together, everything is fine.

Hello cruel world.
Do you know that you're killing me?
I don't mind,
But I could use a little sympathy.

I've been blind
As a fool can be.
My dear cruel world,
Do you ever think about me?

I can feel so alone with you right here.
And yet, I turn to you for comfort in my despair.
You are dust and I am bone.
And I will love your endless gaze of madness until I turn to stone.

Hello cruel world.
Do you know that you're killing me?
I don't mind,
But I could use a little sympathy.

I've been blind
As a fool can be.
My dear cruel world,
Now I know you are my everything.

Please forgive me.

Hello cruel world.
Do you know that you're killing me?
I don't mind,
But I could use a little sympathy.

I've been blind
As a fool can be.
My dear cruel world,
Now I've made a mess of everything.


LEGEND
************************************

| /   Slide up
| \   Slide down
| h   Hammer-on
| p   Pull-off
| ~   Vibrato
| +   Harmonic
| P.H. Pinch Harmonic
| x   Dead note
| b   Bend
| === Hold bend for length of the ===
| pb  Pre-bend
| br  Bend release
| pbr Pre-bend release
| brb Bend release bend

************************************
Добавлено: 11.08.2013
Другие материалы по этой песне:
  • Аккорды и текст

Страница создана 11.08.2013
http://primanota.ru/bad-religion/hello-cruel-world-chords.htm
Привет, Гость.
Предлагаем пройти революционный курс по гитаре.
Подарок от PrimaNota.Ru, забирай!