PrimaNota.ru - самый крупный в мире бесплатный архив песенных текстов, аккордов, табулатур и нот


Bad Religion - Back To The Known (album) - бас-таба, видео

Регистрация Запомнить меня
Войти через:  Facebook Google Twitter Vk Yandex Mail.ru

Bad Religion - Back To The Known (album) - бас-таба, видео

Печатать
Просмотров: 46
Album: Back To The Known
Artist: Bad Religion
Genre: Hardcore Punk
Year: 1985

Hey guys! This is the bass tab of the song and it's 100% correct.
Anyway, enjoy the Bad Religion!

01 Yesterday

Riff 1:

G:-----------------------------
D:-----------------------------
A:-------------66-5------------
E:---8-8-66-8-------66666666---

Riff 2:

G:----------------------------------------------------------------
D:----------------------------------------------------------------
A:--------6------------6-5-----------6----------------------------
E:---4-44----6666-4-44-----8-66-4-44----6666-44444444-3333-3--6---

Riff 3:

G:---------------------
D:---------------------
A:------------66-5-----
E:---8-8-66-8------6---

The order is:
.Riff 1 x6
.Riff 2 x1
.Riff 1 x6
.Riff 2 x1
.Riff 1 x6
.Riff 2 x1
.Riff 3 x3
.Riff 1 x5
.Riff 2 x1
.Riff 1 x3
.Riff 3 x1

----------------------------------------------------------------------------------------------------------------

02 Frogger


Intro:

G:----------------------------------------------------------------------------------------
D:----------------------------------------------------------------------------------------
A:----------------------------------------------------------------------------------------
E:---0-0000000-000000-8-7-8-7-8-7-8-7-0-0000000-000000-8-7-8-7-8-7-8-7-0-0000000-000000---x1

G:--------------------------------------
D:--------------------------------------
A:-------------------7-7777777-777777---
E:---8-7-8-7-8-7-8-7--------------------x1

Verse:

G:--------------------------------------
D:--------------------------------------
A:-------------------7-7777777-777777---
E:---8-7-8-7-8-7-8-7--------------------

Chorus:

G:----------------------------------------
D:---5-555555-----------------------------
A:------------5-555555-7-7777777-777777---
E:----------------------------------------

End:

G:-------------------------
D:---5-555555--------------
A:------------5-555555-7---
E:-------------------------

The order is:
.Intro x1
.Verse x4
.Chorus x2
.Verse x6
.Chorus x3
.End x1

----------------------------------------------------------------------------------------------------------------

03 Bad Religion

***This version of "Bad Religion" has got different riffs from the first EP*** 

Intro:

G:-------
D:-------
A:---3---
E:-------

Verse:

G:---------------------------
D:---------------------------
A:---3----------5------------
E:------5--3--5---555-33-5---

Pre-Chorus:

G:-----------------------------------------------------------------------------
D:-----------------------------------------------------------------------------
A:---5-555555-4-444444-7-777777-5-555555-7-777777-5-555555-7-777777-5--5---6---
E:-----------------------------------------------------------------------------x1

G:------------------------------------------
D:------------------------------------------
A:---7-777777-5-555555-6666666666666666-6---
E:------------------------------------------x1

Chorus 1:

G:------------------------------------------------------------------------------
D:------------------------------------------------------------------------------
A:------------------------------6-6---------------------------------6-6---------
E:---66666666-4-4--666666666666------666666666666-4-4--666666666666------6666---x1

G:------------------------------------------------------
D:------------------------------------------------------
A:------------6-6---------------6-6--777777777777-5-----
E:---66666666------666666666666---------------------7---x1

Chorus 2:

G:------------------------------------------
D:------------------------------------------
A:------------------------------6-6---------
E:---66666666-4-4--666666666666------6666---x4

G:---------------------------------------
D:---------------------------------------
A:------------6-6---------------6-6------
E:---66666666------666666666666------6---x1

The order is:
.Intro x1
.Verse x5
.Pre-Chorus x1
.Chorus 1 x1
.Verse x2
.-------------
.Verse x5
.Pre-Chorus x1
.Chorus 2 x1

----------------------------------------------------------------------------------------------------------------

04 Along The Way

Intro:

G:------------------
D:------------10*---
A:------------------
E:---8-888-6--------     
*Ten

Main Riff:

G:----------------------------------------------
D:----------------------------------------------
A:-------------8888-----------6666--------------
E:---8-88-6666------8888-4-44------6666-888-6---

End:

G:------------------------------------------
D:------------------------------------------
A:-------------8888-----------6666----------
E:---8-88-6666------8888-4-44------6666-8---

The order is:
.Intro x1 
.Main Riff x8
.End x1

----------------------------------------------------------------------------------------------------------------

05 New Leaf

Intro: 

G:----------------------------
D:----------------------------
A:---555-0------------555-7---
E:----------------------------

Verse:

G:---------------------------------------
D:---------------------------------------
A:---555-0-0000000000-555-7-7777777777---
E:---------------------------------------

Chorus:

G:--------------------------------------------------------------------------------------------------------
D:--------------------------------------------------------------------------------------------------------
A:---3-33----------------------3-33-----5-55555555555555-3-33----------------------3-333333---------------
E:--------333-5-55555555555555------333-----------------------333-5-55555555555555----------3-333333-0~---x1

Bridge:

G:---------------------------------------------------------------------
D:---------------------------------------------------------------------
A:---555-0------------555-7------------555-0--------555-777777777777---
E:---------------------------------------------------------------------x1

G:---------------------------------------
D:---------------------------------------
A:---555-0-0000000000-555-7-7777777777---
E:---------------------------------------x2

G:---------------------------------------   --------------------------------------------
D:---------------------------------------   --------------------------------------------  
A:---555-0-000000-3-3-3------------------   ---555-0-000000-3-333333--------------------   
E:----------------------3-333333-5-555---x2 -------------------------3-33333333-5-555---x2 

G:---------
D:---------
A:---555---
E:---------x1

End Chorus:

G:-------------------------------------------5-7-5-------
D:-------------------------------------------------7-5---
A:---3-33----------------------3-33-----5-55-------------
E:--------333-5-55555555555555------333------------------x1

G:---------------------------------------------------------
D:---------------------------------------------------------
A:---3-33----------------------3-33-----5-55555555555555---
E:--------333-5-55555555555555------333--------------------x1

G:-------------------------------------------5-7-5-------
D:-------------------------------------------------7-5---
A:---3-33----------------------3-33-----5-55-------------
E:--------333-5-55555555555555------333------------------x1

G:------------------------------------------
D:------------------------------------------
A:---3-33----------------------3-33-----5---
E:--------333-5-55555555555555------333-----x1

The order is:
.Intro x2
.Verse x6
.Chorus x1
.Verse x6
.Chorus x1
.Bridge x1
.End Chorus x1





Tab by: mdc_ivan








Добавлено: 21.03.2016
Другие материалы по этой песне:
  • Аккорды и текст

Страница создана 21.03.2016
http://primanota.ru/bad-religion/back-to-known-album-chords.htm
Привет, Гость.
Предлагаем пройти революционный курс по гитаре.
Подарок от PrimaNota.Ru, забирай!