PrimaNota.ru - самый крупный в мире бесплатный архив песенных текстов, аккордов, табулатур и нот


Bad Religion - Bad Religion Ep (album) - бас-таба, видео

Регистрация Запомнить меня
Войти через:  Facebook Google Twitter Vk Yandex Mail.ru

Bad Religion - Bad Religion Ep (album) - бас-таба, видео

Печатать
Просмотров: 66
Уроки эстрадного вокала в Санкт-Петербурге
Album: Bad Religion
Artist: Bad Religion
Genre: Hardcore Punk
Year: 1981

Hey guys! This is the bass tab of the album and I think it's 100% correct.
Anyway, enjoy the Bad Religion!

01 Bad Religion

Intro:

G:-------
D:-------
A:---3---
E:-------

Verse 1:

G:---------------------------
D:---------------------------
A:---3----------5------------
E:------5--3--5---555-33-5---

Pre-Chorus 1:

G:-----------------------------------------------------------------------------
D:-----------------------------------------------------------------------------
A:---5-555555-4-444444-7-777777-5-555555-7-777777-5-555555-7-777777-5--5---6---
E:-----------------------------------------------------------------------------x1

G:------------------------------------------
D:------------------------------------------
A:---7-777777-5-555555-6666666666666666-6---
E:------------------------------------------x1

Chorus 1:

G:------------------------------------------------------------------------------
D:------------------------------------------------------------------------------
A:------------------------------6-6---------------------------------6-6---------
E:---66666666-4-4--666666666666------666666666666-4-4--666666666666------6666---x1

G:------------------------------------------------------
D:------------------------------------------------------
A:------------6-6---------------6-6--777777777777-5-----
E:---66666666------666666666666---------------------7---x1

Verse 2:

G:---------------------------
D:---------------------------
A:---5----------7------------
E:------7--5--7---777-55-7---

Pre-Chorus 2:

G:-----------------------------------------------------------------------------
D:-----------------------------------------------------------------------------
A:---7-777777-6-666666-9-999999-7-777777-9-999999-7-777777-9-999999-7--7---8---
E:-----------------------------------------------------------------------------x1

G:------------------------------------------
D:------------------------------------------
A:---9-999999-7-777777-8888888888888888-8---
E:------------------------------------------x1

Chorus 2:

G:------------------------------------------
D:------------------------------------------
A:------------------------------6-6---------
E:---66666666-4-4--666666666666------6666---x4

G:---------------------------------------
D:---------------------------------------
A:------------6-6---------------6-6------
E:---66666666------666666666666------6---x1

The order is:
.Intro x1
.Verse 1 x10
.Pre-Chorus 1 x1
.Chorus 1 x1
.Verse 2 x2
.---------------
.Verse 2 x5
.Pre-Chorus 2 x1
.Chorus 2 x1

----------------------------------------------------------------------------------------------------------------

02 Politics

Intro/Verse:

G:----------------------------------
D:----------------------------------
A:---3-33333-11-3-3----66-----------
E:------------------44----6-66666---

Bridge:

G:--------------------   -----------------------------------------
D:--------------------   -----------------------------------------
A:---3-33333-11-3-3---   ---6-666666-8-888888-1-111111-3-333333---
E:--------------------x4 -----------------------------------------x4

End:

G:--------------------   ------------------
D:--------------------   ------------------
A:---3-33333-11-3-3---   ---3-33333-11-3---
E:--------------------x2 ------------------x1

The order is:
.Intro x2
.Verse x10
.Bridge x1
.Verse x6
.End x1

----------------------------------------------------------------------------------------------------------------

03 Sensory Overload

Intro:

G:-------------------   -----------   -----------------
D:-------------------   -----------   -------1---------
A:-------------------   -----------   ----------4--2---
E:---55-00-7-77777---x3 ---00-55---x3 ---0-------------x1

Next, the song follows this order: 

G:-------------------
D:-------------------
A:-------------------
E:---77-55-2-22222---x4

G:--------------------   -------------------
D:--------------------   -------------------
A:-----0--------------   -------------------
E:---2---00-7-77777---x1 ---55-00-7-77777---x4

G:-----------------------------------------------
D:-----------------------------------------------
A:---7777-9-999-666-7-6-66-6-6-66-6-7-777777-9---
E:-----------------------------------------------x1

G:-------------------   -------------
D:-------------------   -------------
A:-------------------   -------------
E:---77-55-2-22222---x5 ---77-55-2---x1

G:-------------------
D:-------------------
A:-------------------
E:---55-00-7-77777---x8

G:-----------------------------------------------
D:-----------------------------------------------
A:---7777-9-999-666-7-6-66-6-6-66-6-7-777777-9---
E:-----------------------------------------------x1

G:-------------------   -------------
D:-------------------   -------------
A:-------------------   -------------
E:---77-55-2-22222---x5 ---77-55-2---x1

----------------------------------------------------------------------------------------------------------------

04 Slaves

Intro/Verse:

G:------------------------
D:------------------------
A:---55555555------8888---
E:------------6666--------

Chorus:

G:-------------------------
D:-------------------------
A:---5555-8888-------------
E:-------------6666-8888---

End:

G:---7---
D:---7---
A:---5---
E:-------

The order is:
.Intro x2
.Verse x4
.Chorus x3
.Verse x10
.Chorus x8
.End x1

----------------------------------------------------------------------------------------------------------------

05 Drastic Actions

The song follows this order:

G:------------------------   -------------------------   ------------------------
D:------------------------   -------------------------   ------------------------
A:---2222-3333-5555-555---   ---2222-3333-555-3-333---   ---2222-3333-5555-555---
E:------------------------x1 -------------------------x3 ------------------------x1

G:-------------------------   ------------------------
D:-------------------------   ------------------------   
A:---2222-3333-555-3-333---   ---2222-3333-5555-555---   
E:-------------------------x3 ------------------------x1 

G:-------------------------   ------------------------
D:-------------------------   ------------------------
A:---2222-3333-555-3-333---   ---2222-3333-5555-555---
E:-------------------------x3 ------------------------x1

G:------------------------   ----------------------
D:---2-2--22-3-3--3-5-3---   ---2-2-22-------------
A:------------------------   ----------333-2-222---
E:------------------------x2 ----------------------x1

G:------------------------   -------------------------   -------------------------
D:------------------------   -------------------------   -------------------------
A:---0000-1111-3333-333---   ---0000-1111-333-1-111---   ---0000-1111-333-1-3-1---
E:------------------------x2 -------------------------x2 -------------------------x3

G:------------------------   -------------------------   ------------------------
D:------------------------   -------------------------   ------------------------
A:---0000-1111-3333-333---   ---0000-1111-333-1-3-1---   ---0000-1111-3333-333---
E:------------------------x1 -------------------------x3 ------------------------x1

G:-------------------------   ------------------------   -------------------------
D:-------------------------   ------------------------   -------------------------
A:---0000-1111-333-1-3-1---   ---0000-1111-3333-333---   ---0000-1111-3333-33-1---
E:-------------------------x1 ------------------------x3 -------------------------x3

G:------------------------   ------------------------   ------------------------  
D:------------------------   ---0-0--00-1-1--1-3-1---   ---0-0-00---------------
A:---0000-1111-3333-333---   ------------------------   ----------1-1--0-00-----
E:------------------------x1 ------------------------x2 --------------------3---x1

----------------------------------------------------------------------------------------------------------------

06 World War III

Verse 1:

G:-------------------   -------------------
D:-----------1-------   -----------3-------
A:---3-33333----11---   ---5-55555----33---
E:-------------------x4 -------------------x4

Chorus:

G:--------------------------------
D:--------------------------------
A:---5-555555-8-888888-3-333333---
E:--------------------------------

Post-Chorus:

G:---------------------------------
D:--------------------------3------
A:---5-5555555-555555-55555----3---
E:---------------------------------

Verse 2:

G:-------------------
D:-----------3-------
A:---5-55555----33---
E:-------------------

End:

G:-------
D:-------
A:---5---
E:-------

The order is:
.Verse 1 x1
.Chorus x4
.Post-Chorus x1
.Verse 2 x8
.Chorus x4
.End x1





Tab by: mdc_ivan










Добавлено: 21.03.2016
Другие материалы по этой песне:
  • Аккорды и текст

Страница создана 21.03.2016
http://primanota.ru/bad-religion/bad-religion-ep-album-chords.htm
Привет, Гость.
Предлагаем пройти революционный курс по гитаре.
Подарок от PrimaNota.Ru, забирай!