PrimaNota.ru - самый крупный в мире бесплатный архив песенных текстов, аккордов, табулатур и нот


Babymetal - Yava - таба, видео

Регистрация Запомнить меня
Войти через:  Facebook Google Twitter Vk Yandex Mail.ru

Babymetal - Yava - таба, видео

Печатать
Просмотров: 101
Уроки эстрадного вокала в Санкт-Петербурге
Авторы музыки: NORiMETAL
Авторы текста: KxBxMETAL, NAKAMETAL, MK-METAL
[Fades in]

e|----------------------------------------------------------------------------|
B|----------------------------------------------------------------------------|
G|----------------------------------------------------------------------------|
D|----------------------------------------------------------------------------|
A|--2-------------------------------------------------------------------------|
E|--2-------------------------------------------------------------------------|
B|--0-------------------------------------------------------------------------|


[Intro]

e|---------------------------------------------------------------------------|
b|---------------------------------------------------------------------------|
G|---------------------------------------------------------------------------|
D|---------------------------------------------------------------------------|
A|--7-7---7--7--7--7--7--7-----3-3--3--3--5--5--5--5-------------------------|   x2
E|--7-7---7--7--7--7--7--7-----3-3--3--3--5--5--5--5-------------------------|
B|--5-5---5--5--5--5--5--5-6-5-1-1--1--1--3--3--3--3-7-3---------------------|


[Verse]

e|-7-7---7--7--7--7--7--7--7-------------------------------------------------|
B|-5-5---5--5--5--5--5--5--5-8-8--8--8--8--7-7--7--7--7--7-------------------|
G|-4-4---4--4--4--4--4--4--4-5-5--5--5--5--4-4--4--4--4--4-------------------|   x2
D|---------------------------5-5--5--5--5--4-4--4--4--4--4-------------------|
A|---------------------------------------------------------------------------|
E|---------------------------------------------------------------------------|
B|---------------------------------------------------------------------------|

e|---------------------------------------------------------------------------|
b|---------------------------------------------------------------------------| The first half of the verse
G|-9-9--9--9--9--9--9--9--9-5-5--5--5--5-8-8--8--8--8------------------------| is repeated over this part
D|-9-9--9--9--9--9--9--9--9-5-5--5--5--5-9-9--9--9--9------------------------| 
A|-7-7--7--7--7--7--7--7--7-3-3--3--3--3-6-6--6--6--6------------------------|   x2
E|---------------------------------------------------------------------------|
B|---------------------------------------------------------------------------|


[Chorus]

e|---------------------------------------------------------------------------|
B|---------------------------------------------------------------------------|
G|---------------------------------------------------------------------------|
D|-----5---------------------------------------------------------------------|   x2
A|--7--5--3--6---------------------------------------------------------------|
E|--7--3--3--7---------------------------------------------------------------|
B|--5-----1--4---------------------------------------------------------------|


[Post Chorus]

e|---------------------------------------------------------------------------|
b|---------------------------------------------------------------------------| 
G|---------------------------------------------------------------------------| 
D|---------------------------------------------------------------------------|  x2
A|-\7---7--7--7--7--7--7--\3---3--3--5--5--5--5--5---------------------------|
E|-\7---7--7--7--7--7--7--\3---3--3--5--5--5--5--5---------------------------|
B|-\5---5--5--5--5--5--5--\1---1--1--3--3--3--3--3---------------------------|


[Verse 2]

e|-12----12----14----15----12----12----11----11------------------------------|
B|----12----12----12----12----12----12----12---------------------------------|
G|---------------------------------------------------------------------------|
D|---------------------------------------------------------------------------|
A|---------------------------------------------------------------------------|
E|---------------------------------------------------------------------------|
B|---------------------------------------------------------------------------|

                                |___________|
e|-12----12----14----15----14----14----14----11------------------------------|
B|----12----12----12----12----12----12----12---------------------------------|The last two 14-12's (overlined)
G|---------------------------------------------------------------------------|are played as semiquavers 
D|---------------------------------------------------------------------------|I.E: Twice as fast as the rest
A|---------------------------------------------------------------------------|
E|---------------------------------------------------------------------------|
B|---------------------------------------------------------------------------|


e|---------------------------------------------------------------------------|
b|---------------------------------------------------------------------------| 
G|-9-9--9--9--9--9--9--9--9-5-5--5--5--5-8-8--8--8--8------------------------| 
D|-9-9--9--9--9--9--9--9--9-5-5--5--5--5-9-9--9--9--9------------------------| 
A|-7-7--7--7--7--7--7--7--7-3-3--3--3--3-6-6--6--6--6------------------------|
E|---------------------------------------------------------------------------|
B|---------------------------------------------------------------------------|

e|---------------------------------------------------------------------------|
b|---------------------------------------------------------------------------|
G|-9-9--9--9--9--9--9--9--9-5-5--5--5--5-------------------------------------| 
D|-9-9--9--9--9--9--9--9--9-5-5--5--5--5-------------------------------------| 
A|-7-7--7--7--7--7--7--7--7-3-3--3--3--3-6-6--6--6--6------------------------|
E|---------------------------------------7-7--7--7--7------------------------|
B|---------------------------------------4-4--4--4--4------------------------|


[Breakdown]

        PM--------------------------------------------------|
e|---------------------------------------------------------------------------|
B|---------------------------------------------------------------------------|
G|---------------------------------------------------------------------------|
D|---------------------------------------------------------------------------|
A|--3~-2~--------------------------------------------------------------------|
E|--3~-2~--------------------------------------------------------------------|
B|--1~-0~-0-0---0-0--0-000-0000--000-0--000-0-----000---0000-----------------|

         PM----------------------|              PM---|        
e|---------------------------------------------------------------------------|
B|---------------------------------------------------------------------------|
G|---------------------------------------------------------------------------|
D|---------------------------------------------------------------------------|
A|--3~-2~--------------------------2---2---2---2-----------------------------|
E|--3~-2~--------------------------2---2---2---2--2-2------------------------|
B|--1~-0~-0-0---0-0---0-0---0-0-0--0---0---0---0--0-0------------------------|


[Chorus]

e|---------------------------------------------------------------------------|
B|---------------------------------------------------------------------------|
G|---------------------------------------------------------------------------|
D|-----5---------------------------------------------------------------------|   x2
A|--7--5--3--6---------------------------------------------------------------|
E|--7--3--3--7---------------------------------------------------------------|
B|--5-----1--4---------------------------------------------------------------|


[Breakdown #2]

                      PM--------------|         
e|----------------------------------------------------------------------------|
B|----------------------------------------------------------------------------|
G|----------------------------------------------------------------------------|
D|--------------------------------------h5------------------------------------|
A|--7~~---7~~---7~~-----------------------------------------------------------|
E|--7~~---7~~---7~~-----------------------------------------------------------|
B|--5~~---5~~---5~~--\555-5-555-5-555-5---------------------------------------|
                             
                           PM--------------|
e|---------------------------------------------------------------------------|
B|---------------------------------------------------------------------------|
G|---------------------------------------------------------------------------|
D|---------------------------------------------------------------------------|
A|-2--3--2-----2-3-2--3--2---------------------------------------------------|
E|-2--3--2-----2-3-2--3--2---------------------------------------------------|
B|-0--1--0--3--0-1-0--1--0--000-000-000-000----------------------------------|


e|---------------------------------------------------------------------------|
B|---------------------------------------------------------------------------|
G|---------------------------------------------------------------------------|
D|---------------------------------------------------------------------------|
A|-2--3--2-----2-3-2--3--2---------------------------------------------------|
E|-2--3--2-----2-3-2--3--2---------------------------------------------------|
B|-0--1--0--3--0-1-0--1--0--0-0-0-0-0-0-9\-----------------------------------|

e|---------------------------------------------------------------------------|
B|---------------------------------------------------------------------------|
G|---------------------------------------------------------------------------|
D|--------------------------------------7-7-7-7-7-7-7-7----------------------|
A|--------------------------------(x3)---------------------------------------|
E|--------------------------------------5-5-5-5-5-5-5-5----------------------|
B|-000-0-111-1-000-0-333-3-000-111-------------------------------------------|


e|-------------------------------------------7-5-----------------------------|
B|-----------------------------------------------8-7-5-7-8-------------------|
G|---------------------------------------------------------------------------|
D|---------------------------------------------------------------------------|
A|--7~-5~-4~-3~-5-6-7~-5~-4~-3--3-3--3-3-5x----------------------------------|
E|--7~-5~-5~-3~-5-7-7~-5~-5~-3--3-3--3-3-5x----------------------------------|
B|--5~-3~-2~-1~-3-4-5~-3~-2~-1--1-1--1-1-3x----------------------------------|


[Pre-chorus]

e|---------------------------------------------------------------------------|
B|---------------------------------------------------------------------------|
G|---------------------------------------------------------------------------|
D|------5~x------------------------------------------------------------------|
A|--7~--5~x--3~--6x----------------------------------------------------------|
E|--7~--3~x--3~--7x----------------------------------------------------------|
B|--5~-------1~--4x----------------------------------------------------------|


[Chorus]

e|---------------------------------------------------------------------------|
B|---------------------------------------------------------------------------|
G|---------------------------------------------------------------------------|
D|-----5---------------------------------------------------------------------|   x4
A|--7--5--3--6---------------------------------------------------------------|
E|--7--3--3--7---------------------------------------------------------------|
B|--5-----1--4---------------------------------------------------------------|


[Instrumental]

e|---------------------------------------------------------------------------|
b|---------------------------------------------------------------------------|
G|---------------------------------------------------------------------------|
D|---------------------------------------------------------------------------|
A|--7-7---7--7--7--7--7--7-----3-3--3--3--5--5--5--5-------------------------|   x2
E|--7-7---7--7--7--7--7--7-----3-3--3--3--5--5--5--5-------------------------|
B|--5-5---5--5--5--5--5--5-6-5-1-1--1--1--3--3--3--3-7-3---------------------|


[Ending]

e|---------------------------------------------------------------------------|
B|---------------------------------------------------------------------------|
G|---------------------------------------------------------------------------|
D|---------------------------------------------------------------------------|
A|--7~-----------------------------------------------------------------------|
E|--7~-----------------------------------------------------------------------|
B|--5~-----------------------------------------------------------------------|


************************************

| x   Dead note
| /   Slide up
| \   Slide down
| ~   Vibrato

************************************
Добавлено: 21.10.2017
Другие материалы по этой песне:
  • Аккорды и текст

Страница создана 21.10.2017
http://primanota.ru/babymetal/yava-chords.htm
Привет, Гость.
Предлагаем пройти революционный курс по гитаре.
Подарок от PrimaNota.Ru, забирай!