PrimaNota.ru - самый крупный в мире бесплатный архив песенных текстов, аккордов, табулатур и нот


Babymetal - Road Of Resistance - таба, видео

Регистрация Запомнить меня
Войти через:  Facebook Google Twitter Vk Yandex Mail.ru

Babymetal - Road Of Resistance - таба, видео

Печатать
Просмотров: 437
-------------------------------------------------------------------------------
                             Babymetal - Road of Resistance
-------------------------------------------------------------------------------
Tabbed by: André Oksnes (MetallAndy)


Tuning: Standard


************************************

| /   slide up
| \   slide down
| h   hammer-on
| p   pull-off
| ~   vibrato
| *   pinh harmonioc/whammy pedal
| x   Mute note
| t   Tap
| b   Bend
| pb  Pre-bend
| br  Bend release

************************************


Intro Guitar 1
e|----------------------------------------------------------|
B|----------------------------------------------------------|
G|--6-------------------------4---------------4-------------|
D|--6--------7--------2-------4------6---x-x--4--x-x--------|
A|--4--------7--------2-------2------6---x-x--2--x-x--------|
E|--4--------5--------0--------------4---x-x-----x-x--------|

e|---------------------------------------------------------------------------|
B|---------------------------------------------------------------------------|
G|--6----------------------------------------4-------------------------------|
D|--6-------------7--------------------------4-------------------------------|
A|--6---4/7-6-----7---4/7-6-7----2-----------2----------0--4-2-0-0-4-2-0-0---|
E|--4---------7---5--------------0---0-4-5--------0-2-4----------------------|
                                                  x x x x  x x x x x x x x  

e|-----------------------------------------------------------------------------|
B|-----------------------------------------------------------------------------|
G|-----------------------------------------------------------------------------|
D|-----------------------------------------------------------------------------|
A|-4-4-4-4--4-4-4-4------------------------x-7---------------------------------|
E|---------------------5-5-5-5--5-5-5-5----x-5----0-0-0-0--0-0-0-0-------------|
   x x x x  x x x x    x x x x  x x x x           x x x x  x x x x

e|--------------------------------------|
B|--------------------------------------|
G|--------------------------------------|
D|-----------------------2-1------------|
A|--2-2-2-2--2-2-2-2---2-----4-2--------|
E|--------------------------------------|
    x x x x  x x x x   x

e|-----------------------------------------------------------------------------|
B|-----------------------------------------------------------------------------|
G|-----------------------------------------------------------------------------|
D|-----------------------------------------------------------------------------|
A|-4-4-4-4--4-4-4-4------------------------x-7---------------------------------|
E|---------------------5-5-5-5--5-5-5-5----x-5----0-0-0-0--0-0-0-0-------------|
   x x x x  x x x x    x x x x  x x x x           x x x x  x x x x

e|-----------------------------|
B|-----------------------------|
G|-------------------6---------|
D|-------------------6---------|
A|-----------6-------4---------|
E|-\12---7-9---9-7---4---------|


Guitar 2
e|------------------------------------------------------------------------------------------------|
B|-12h14-12----------------12h14-12---------14-16-16h17--17-16-14--14h16-16--14--16b17br16--------|
G|----------13~---13----13----------13~--13-------------------------------------------------------|
D|-------------------14---------------------------------------------------------------------------|
A|------------------------------------------------------------------------------------------------|
E|------------------------------------------------------------------------------------------------|

e|------------------------------------------------------------------------------------------------|
B|-12h14-12----------------12h14-12---------14-16-16h17--17-16-14--14h16-16--14-------------------|
G|----------13~---13----13----------13~--13-------------------------------------------------------|
D|-------------------14---------------------------------------------------------------------------|
A|------------------------------------------------------------------------------------------------|
E|------------------------------------------------------------------------------------------------|

e|----------------------------------|
B|-4-5-7-5-7-9-7-9-10-9-10-12-------|
G|----------------------------------|
D|----------------------------------|
A|----------------------------------|
E|----------------------------------|
   x x x x x x x x x x x x x 

e|--------------------------------------------------------------------------------------|
B|-12h14-12----------------12h14-12---------14-16-16h17--17-16-14--\12-14-12-14/16------|
G|----------13~---13----13----------13~--13---------------------------------------------|
D|-------------------14-----------------------------------------------------------------|
A|--------------------------------------------------------------------------------------|
E|--------------------------------------------------------------------------------------|

e|--------------------------------------------------------------------------------------|
B|-12h14-12--------------------------------------14-16-16h17--14-16-17------------------|
G|----------13~---13----13--13h14-13-13h14~---14----------------------------------------|
D|-------------------14-----------------------------------------------------------------|
A|--------------------------------------------------------------------------------------|
E|--------------------------------------------------------------------------------------|

e|--14h16-----------11h12p11--------------------|
B|--------17-16-17-----------12-----------------|
G|------------------------------13--11/13~------|
D|----------------------------------------------|
A|----------------------------------------------|
E|----------------------------------------------|

Guitar 3
e|-11h12-11------------------11h12-11----------12-14-14h16--16-14-12--12h14-14--12-14b16br14---|
B|----------12~---12----12------------12~---12-------------------------------------------------|
G|-------------------13------------------------------------------------------------------------|
D|---------------------------------------------------------------------------------------------|
A|---------------------------------------------------------------------------------------------|
E|---------------------------------------------------------------------------------------------|

e|-11h12-11------------------11h12-11----------12-14-14h16--16-14-12--12h14-14--12-------------|
B|----------12~---12----12------------12~---12-------------------------------------------------|
G|-------------------13------------------------------------------------------------------------|
D|---------------------------------------------------------------------------------------------|
A|---------------------------------------------------------------------------------------------|
E|---------------------------------------------------------------------------------------------|

e|-2-4-5-4-5-7-5-7-9-7-9-10----------------------|
B|-----------------------------------------------|
G|-----------------------------------------------|
D|-----------------------------------------------|
A|-----------------------------------------------|
E|-----------------------------------------------|
   x x x x x x x x x x x x

e|-11h12-11------------------11h12-11----------12-14-14h16--16-14-12--\11-12-11-12/14~--|
B|----------12~---12----12------------12~---12------------------------------------------|
G|-------------------13-----------------------------------------------------------------|
D|--------------------------------------------------------------------------------------|
A|--------------------------------------------------------------------------------------|
E|--------------------------------------------------------------------------------------|

e|-11h12-11------------------------------------12-14-14h16--12-14-16--16/19-16--14-16----|
B|----------12~--12----12--12h14-12-12h14--14--------------------------------------------|
G|------------------13-------------------------------------------------------------------|
D|---------------------------------------------------------------------------------------|
A|---------------------------------------------------------------------------------------|
E|---------------------------------------------------------------------------------------|

E|-14h16p14/12--------------|
B|-------------12-12/14~----|
G|--------------------------|
D|--------------------------|
A|--------------------------|
E|--------------------------|

PRE VERSE LEAD
Guitar 1
e|--------------8h9p8-11h12p11---------|
B|-------9h10p9------------------------|
G|-8h9p8-------------------------------|
D|-------------------------------------|
A|-------------------------------------|
E|-------------------------------------|

e|-------------------------------------------------------------------------------------|
B|-14-14--12-14-12------14-14--12-14-12------14-14--12-14--12h14p12-----------12-------|
G|-----------------13-------------------13--------------------------13-----11----13~---|
D|---------------------------------------------------------------------14--------------|
A|-------------------------------------------------------------------------------------|
E|-------------------------------------------------------------------------------------|

e|---------------------------------------------14p12----12-14-16-14-12-14p12----12------|
B|---------------------------------------------------14----------------------14---------|
G|-11p9----9-11-13-11-9--11p9----9-11-13-11-9-------------------------------------------|
D|------11-------------------11---------------------------------------------------------|
A|--------------------------------------------------------------------------------------|
E|--------------------------------------------------------------------------------------|

e|--16-16-12-12-14-14-12-12-16-16-12-12-14-14-12-12----------------|
B|-----------------------------------------------------17*b19------|
G|-----------------------------------------------------------------|
D|-----------------------------------------------------------------|
A|-----------------------------------------------------------------|
E|-----------------------------------------------------------------|
     x  x  x  x  x  x  x  x  x  x  x  x  x  x  x  x  


e|------------------------------------------------------------------------------------|
B|-14-14--12-14-12------14-14--12-14-12------14-14--12-14--12h14p12-------------------|
G|-----------------13-------------------13--------------------------13----11----13*---|
D|---------------------------------------------------------------------14----14-------|
A|------------------------------------------------------------------------------------|
E|------------------------------------------------------------------------------------|

e|-----------------------------------------------|
B|-----------------------------------------------|
G|-14--11-11-11-11--13--11-11-11-11--13-14-------|
D|-----------------------------------------------|  X2
A|-----------------------------------------------|
E|-----------------------------------------------|
       x  x  x  x       x  x  x  x

e|--------------------------------------------------------------------------|
B|--13--------13--------13----14----14-------17p16p14----14h16h17~----------|
G|-----13-13-----13-13-----13----13----13-------------17--------------------|
D|--------------------------------------------------------------------------|
A|--------------------------------------------------------------------------|
E|--------------------------------------------------------------------------|
        x x       x x       x     x     x

Guitar 2
e|---------8h9p8-11h12p11-15h16p15----|
B|--9h10p9----------------------------|
G|------------------------------------|
D|------------------------------------|
A|------------------------------------|
E|------------------------------------|

e|-12-12--11-12-11------12-12--11-12-11-------12-12--11-12--11h12p11----------11-------|
B|-----------------12-------------------12---------------------------12----12----12*---|
G|----------------------------------------------------------------------13-------------|
D|-------------------------------------------------------------------------------------|
A|-------------------------------------------------------------------------------------|
E|-------------------------------------------------------------------------------------|

e|-------------------------------------------------------------------------|
B|-------------------------------------------------------------------------|
G|------------------------------------11p9----9-11-13-11-9--11p9----9------|
D|-----------------------------------------11--------------------11--------|
A|-9p7---7-9-11-9-7-9p7---7-9-11-9-7---------------------------------------|
E|-----9----------------9--------------------------------------------------|

e|---------------------------------------------------------|
B|---------------------------------------------17*b19------|
G|--13-13-9-9-10-10-9-9-13-13-9-9-10-10-9-9----------------|
D|---------------------------------------------------------|
A|---------------------------------------------------------|
E|---------------------------------------------------------|
    x x x x x x x x x x x x x x x x x x x x 

e|-12-12--11-12-11------12-12--11-12-11-------12-12--11-12--11h12p11-------------------|
B|-----------------12-------------------12---------------------------12----12----12*---|
G|----------------------------------------------------------------------13----13-------|
D|-------------------------------------------------------------------------------------|
A|-------------------------------------------------------------------------------------|
E|-------------------------------------------------------------------------------------|

e|-----------------------------------------------|
B|-14--10-10-10-10--12--10-10-10-10--12-14-------|
G|-----------------------------------------------|
D|-----------------------------------------------|  X2
A|-----------------------------------------------|
E|-----------------------------------------------|
       x  x  x  x       x  x  x  x

e|--------------------------------16p14p12----12h14h16~-----|
B|--9-----9------9---10---10---------------16---------------|
G|----9-9----9-9---9----9----9------------------------------|
D|----------------------------------------------------------|
A|----------------------------------------------------------|
E|----------------------------------------------------------|
      x x    x x   x    x    x


VERSE

Guitar 1
e|---------------------------------------------------------------------|
B|---------------------------------------------------------------------|
G|-6-----------------------------6-------------------------------------|
D|-6-----------------------------6-----------------4-------------------|
A|-4------6h7--6-----------------4------6h7--6-------7-6-7-------------|
E|-4--4-4---------7--4--2-4-2----4--4-4---------7----------------------|
      x x                           x x

e|-----------------------------------------------------------------------------|
B|-----------------------------------------------------------------------------|
G|-----------------------------------------------------------------------------|
D|-----------------------------------------------------------------------------|  
A|-7-------------7-7--4------------------9-------------9-7--6--------9-7-6h7---|
E|-5-5-5-5-5-5-5-5-4--2-2-2-2-2-2-2-2----7-7-7-7-7-7-7-7-5--4-4-4-4------------|
     x x x x x x        x x x x x x x      x x x x x x      x x x x 

e|---------------------------------------------------------------------|
B|---------------------------------------------------------------------|
G|-6-----------------------------6-------------------------------------|
D|-6-----------------------------6-----------------4-------------------|
A|-4------6h7--6-----------------4------6h7--6-------7-6-7-------------|
E|-4--4-4---------7--4--2-4-2----4--4-4---------7----------------------|
      x x                           x x

e|---------------------------------------------------------------------------|
B|---------------------------------------------------------------------------|
G|---------------------------------------------------------------------------|
D|---------------------------------------------------------------------------|  
A|-7-------------7-7--4------------------9-----------------11-------6-7-9----|
E|-5-5-5-5-5-5-5-5-4--2-2-2-2-2-2-2-2----7-7-7-7-7-7-7-7---8-8-8-8-----------|
     x x x x x x        x x x x x x x      x x x x x x x     x x x   

Guitar 2
e|---------------------------------------------------------------------|
B|---------------------------------------------------------------------|
G|-6-----------------------------6-------------------------------------|
D|-6-----------------------------6-----------------4-------------------|
A|-4------6h7--6-----------------4------6h7--6-------7-6-7-------------|
E|-4--4-4---------7--4--2-4-2----4--4-4---------7----------------------|
      x x                           x x

e|-----------------------------------------------------------------------------|
B|-----------------------------------------------------------------------------|
G|-----------------------------------------------------------------------------|
D|-----------------------------------------------------------------------------|  
A|-7-------------7-7--4------------------9-------------9-7--6--------9-7-6h7---|
E|-5-5-5-5-5-5-5-5-4--2-2-2-2-2-2-2-2----7-7-7-7-7-7-7-7-5--4-4-4-4------------|
     x x x x x x        x x x x x x x      x x x x x x      x x x x 

e|--------------------------------------------------------------------|
B|--------------------------------------------------------------------|
G|-6----------------------------6-------------------------------------|
D|-6------4h6--4----------------6------4h6---4-----7-6-4-6------------|
A|-4--------------6---------4---4---------------6---------------------|
E|-4--4-4------------7-4-7------4--4-4--------------------------------|
      x x                          x x     

e|---------------------------------------------------------------------------|
B|---------------------------------------------------------------------------|
G|---------------------------------------------------------------------------|
D|------------------------------------------------------------------4-6-7----|  
A|-7-------------7-7--4------------------9-----------------11----------------|
E|-5-5-5-5-5-5-5-5-4--2-2-2-2-2-2-2-2----7-7-7-7-7-7-7-7---8-8-8-8-----------|
     x x x x x x        x x x x x x x      x x x x x x x     x x x   

Fig.2 Guitar 1 & 2
e|---------------------------------------------------------------------------|
B|---------------------------------------------------------------------------|
G|-----------------------------------6--------6--------6---------------------|
D|-----------------------------------6--------6--------6---------------------|
A|-4--------4--------4-----4-4-4-----4--------4--------4------4-2------------|
E|-2-2-222--2-2-222--2-222-2-2-2-----4-4-444--4-4-444--4-444------5-4--------|
     x xxx    x xxx    xxx             x xxx    x xxx    xxx     

e|---------------------------------------------------------------------------|
B|---------------------------------------------------------------------------|
G|---------------------------------------------------------------------------|
D|---------------------------------------------------------------------------|
A|-4----2--1-----3------3------3-----33333333-4444-6666----------------------|
E|-2----0--0-----4-4444-4-4444-4-44------------------------------------------|
                   xxxx   xxxx   xx  xxxxxxxx xxxx xxxx

Guitar 2 ending
e|---------------------------------------------------------------------------|
B|---------------------------------------------------------------------------|
G|---------------------------------------------------------------------------|
D|-----------------------------------11111111-3333-4444----------------------|
A|-4----2--1-----3------3------3---------------------------------------------|
E|-2----0--0-----4-4444-4-4444-4-44------------------------------------------|
                   xxxx   xxxx   xx  xxxxxxxx xxxx xxxx

Guitar 1 
e|------------------------------------------------------------------------------------|
B|------------------------------------------------------------------------------------|
G|-6----------------------------------6-----------------------------------------------|
D|-6----7---------4-------------------6----7-----------------------------------10*----|
A|-4----7----2----2--2-2-4-4-6-6-2-2--4----7----2--11-11-11-11-9-9-9-9-7-7-7-7--------|
E|-4----5----0------------------------4----5----0-------------------------------------|
                     x x x x x x x x               x  x  x  x  x x x x x x x x

Guitar 2
e|---------------------------------------------------------------------------------|
B|---------------------------------------------------------------------------------|
G|-6----------------------------------6-------------------------------------9*-----|
D|-6----7-----------------------------6----7--------9-9-9-9-7-7-7-7-6-6-6-6--------|
A|-4----7----2----9--6-6-7-7-9-9-6-6--4----7----2----------------------------------|
E|-4----5----0----7-------------------4----5----0----------------------------------|
                     x x x x x x x x                x x x x x x x x x x x x 

Both guitars 
e|---------------------------------------------------------------------------------|
B|---------------------------------------------------------------------------------|
G|---------------------------------------------------------------------------------|
D|------------------------------------------2------2------2----4------4------4-----|
A|-44444444----------------------22222222---0-0000-0-0000-0-00-2-2222-2-2222-2-22--|
E|-----------55555555--00000000----------------------------------------------------|
    xxxxxxx   xxxxxxx   xxxxxxx   xxxxxxx     xxxx   xxxx   xx   xxxx   xxxx   xx 

e|---------------------------------------------------------------------------|
B|---------------------------------------------------------------------------|
G|---------------------------------------------------------------4-6---------|
D|---------------------444444-666666--4-4-3-3-----3-3-6-6--6-6---6-8---------|
A|--444444--------4444------------------------4-4----------4-4---------------|
E|---------444444------------------------------------------------------------|
    xxxxxx xxxxxx xxxx xxxxxx xxxxxx  x x x x x x x x x x

Lead guitar
e|--/9-t13p9t13p9--t14p9t14p9--t16p9t16p9--------------|
B|-----------------------------------------------------|
G|-----------------------------------------------------|
D|-----------------------------------------------------|
A|-----------------------------------------------------|
E|-----------------------------------------------------|

e|----t14p9t14p9--t13p9t13p9h13-t14/16/14p13p9--------------9h13-t16p13p9--------------9h13-t21-----|
B|---------------------------------------------9----------9---------------9----------9--------------|
G|-----------------------------------------------10----10-------------------10----10----------------|
D|--------------------------------------------------11-------------------------11-------------------|
A|--------------------------------------------------------------------------------------------------|
E|--------------------------------------------------------------------------------------------------|

Chorus
Both Guitars
e|-----------------------------------------------------------------------|
B|-----------------------------------------------------------------------|
G|----------6-----8-----------------6---------8---6----------------------|
D|----------6-----8----3---6-3-4----4---------8---6----4---4-3-4---------|
A|--4----4--4--4--6----1---4-1-2-------4--4---6---4----2---2-2-2---------|
E|--2----1--4--1--6--------------------2--1---6---4----------------------|

e|---------------------------------------------------------------------------|
B|---------------------------------------------------------------------------|
G|---------------------------------------------------------------------------|
D|-6------6------6-----------------------------------------------------------|
A|-4-4444-4-4444-4----------------6666-9999----------------------------------|
E|------------------10101010-6666--------------------------------------------|
     xxxx   xxxx    xxxxxxxx xxxx xxxx xxxx 
                                               
Guitar 1
e|------------------------------------------------------|
B|------------------------------------------------------|
G|------------------------------------------------------|
D|----8888-6666-8888-9999-8888-6666-8888----------------|
A|-66---------------------------------------------------|
E|------------------------------------------------------|
   xx xxxx xxxx xxxx xxxx xxxx xxxx xxxx

e|------------------------------------------------------|
B|------------------------------------------------------|
G|------------------------------------------------------|
D|----8888-6666-8888-9999-8888-6666-8888----------------|
A|-55---------------------------------------------------|
E|------------------------------------------------------|
   xx xxxx xxxx xxxx xxxx xxxx xxxx xxxx

e|------------------------------------------------------|
B|------------------------------------------------------|
G|------------------------------------------------------|
D|----8888-6666-8888-9999-8888-6666-8888----------------|
A|-44---------------------------------------------------|
E|------------------------------------------------------|
   xx xxxx xxxx xxxx xxxx xxxx xxxx xxxx

Guitar 2
e|------------------------------------------------------|
B|------------------------------------------------------|
G|------------------------------------------------------|
D|----4444-3333-4444-6666-4444-3333-4444----------------|
A|-66---------------------------------------------------|
E|------------------------------------------------------|
   xx xxxx xxxx xxxx xxxx xxxx xxxx xxxx

e|------------------------------------------------------|
B|------------------------------------------------------|
G|------------------------------------------------------|
D|----4444-3333-4444-6666-4444-3333-4444----------------|
A|-55---------------------------------------------------|
E|------------------------------------------------------|
   xx xxxx xxxx xxxx xxxx xxxx xxxx xxxx

e|------------------------------------------------------|
B|------------------------------------------------------|
G|------------------------------------------------------|
D|----4444-3333-4444-6666-4444-3333-4444----------------|
A|-44---------------------------------------------------|
E|------------------------------------------------------|
   xx xxxx xxxx xxxx xxxx xxxx xxxx xxxx

Guitar 1
e|------------------------------------------------------------------------------------------|
B|------------------------------------------------------------------------------------------|
G|--5-5-5-5-5-5------------------------------------8----------------------------------------|
D|--6-6-6-6-6-6----4----4444-3333-4444-6666--------8-----------4----6--10-------------------|
A|--3-3-3-3-3-3----2-------------------------4--4--6-----------2----4--8---4----------------|
E|-------------------------------------------2--1--6--9-7-6-9--------------2-22222222-------|
                        xxxx xxxx xxxx xxxx                                  xxxxxxxx

Guitar 2
e|------------------------------------------------------------------------------------------|
B|------------------------------------------------------------------------------------------|
G|--5-5-5-5-5-5---------3333-1111-3333-4444-------------------------8-----------------------|
D|--6-6-6-6-6-6----4--------------------------------8-----------4----6--10------------------|
A|--3-3-3-3-3-3----2--------------------------4--4--6-----------2----4--8---4---------------|
E|--------------------------------------------2--1--6--9-7-6-9--------------2-22222222------|
                        xxxx xxxx xxxx xxxx                                   xxxxxxxx

SOLO 1
Guitar 1
e|-----------------------------------------------14--14-14-14--16-14------------|
B|----------------------------------11----11-14----------------------14---------|
G|-----------------11--11-11-11--13----13-------------------------------16-15---|
D|-------6/8-6------------------------------------------------------------------|
A|--2/4-------------------------------------------------------------------------|
E|------------------------------------------------------------------------------|

e|--------------------------------------------13-13-13-13--14-14-14-14-18-18-18-18---|
B|----------------------14--------16-16-16-16----------------------------------------|
G|--16--16-16-16--15-16----16-15-----------------------------------------------------|
D|-----------------------------------------------------------------------------------|
A|-----------------------------------------------------------------------------------|
E|-----------------------------------------------------------------------------------|

e|------------------------13-14---18--18-18-18--19-18------------------|
B|------------------11-14-----------------------------19-16------------|
G|-11--11-11-11--13-----------------------------------------18---------|
D|---------------------------------------------------------------------|
A|---------------------------------------------------------------------|
E|---------------------------------------------------------------------|

e|-------------------------------------------------------------------18--------|
B|-------------------------------------------15--15-15-15--15-15-15------------|
G|--16--16-16-16--15-16h18p16p15----15h16h18-----------------------------------|
D|-------------------------------18--------------------------------------------|
A|-----------------------------------------------------------------------------|
E|-----------------------------------------------------------------------------|

e|--t18p14p13p11---------|         e|--t19p14p13p11-------|
B|-----------------------|         B|---------------------|
G|-----------------------|         G|---------------------|
D|-----------------------|  X4     D|---------------------|   X4
A|-----------------------|         A|---------------------|    
E|-----------------------|         E|---------------------| 


e|--t18p14p13p11---------|         e|--t16p13p10p9--------|                            
B|-----------------------|         B|---------------------|                            
G|-----------------------|         G|---------------------|                                
D|-----------------------|  X4     D|---------------------|   X4                             
A|-----------------------|         A|---------------------|                                 
E|-----------------------|         E|---------------------|                               



e|--t18p14p13p11---------|         e|--t19p14p13p11-------|                    
B|-----------------------|         B|---------------------|                                  
G|-----------------------|         G|---------------------|                              
D|-----------------------|  X4     D|---------------------|   X4                                 
A|-----------------------|         A|---------------------|                               
E|-----------------------|         E|---------------------|                              

e|-21p19p18----18h19/16------|
B|----------21---------------|
G|---------------------------|
D|---------------------------|
A|---------------------------|
E|---------------------------|

Tapping again

e|--t18p14p13p11---------|         e|--t19p14p13p11-------|
B|-----------------------|         B|---------------------|
G|-----------------------|         G|---------------------|
D|-----------------------|  X4     D|---------------------|   X4
A|-----------------------|         A|---------------------|    
E|-----------------------|         E|---------------------| 


e|--t18p14p13p11---------|         e|--t16p13p10p9--------|  
B|-----------------------|         B|---------------------|  
G|-----------------------|         G|---------------------|  
D|-----------------------|  X4     D|---------------------|   X4 
A|-----------------------|         A|---------------------| 
E|-----------------------|         E|---------------------| 



e|--t18p14p13p11---------|         e|--t19p14p13p11-------|  
B|-----------------------|         B|---------------------|
G|-----------------------|         G|---------------------|    
D|-----------------------|  X4     D|---------------------|   X4 
A|-----------------------|         A|---------------------|
E|-----------------------|         E|---------------------| 

e|---------------------------------------------------------------------------|
B|--------------------------------12-15--------------------------------------|
G|-----------11-13-------11-13-15-----------------11-15-13-11-10-------------|
D|--11-13-15--------------------------------11-13----------------------------|
A|---------------------------------------------------------------------------|
E|---------------------------------------------------------------------------|

Guiatr 2
e|-----------------------------9-999-9/11\9----------------------------------|
B|-------7-6--------6-7-6-7/9---------------11--9\7---9-999----9/11\9--------|
G|------------8-888-----------------------------------------11--------11-----|
D|--6/8----------------------------------------------------------------------|
A|---------------------------------------------------------------------------|
E|---------------------------------------------------------------------------|

e|-------------9-9-9-9-11-11-11-11-14-14-14-14-------|
B|-11-11-11-11---------------------------------------|
G|---------------------------------------------------|
D|---------------------------------------------------|
A|---------------------------------------------------|
E|---------------------------------------------------|

e|-------------6h7--14--14-14-14/16\14------------|
B|-------6h7h9-------------------------14---------|
G|-8-888----------------------------------13/11---|
D|------------------------------------------------|
A|------------------------------------------------|
E|------------------------------------------------|

E|-------------------------------------------------------------------|
B|-------------------------------------------------------------------|
G|13--13-13-13-11-13h15p13p11----11h13h15-15--15-15-15--15-15-15*----|
D|----------------------------15-------------------------------------|
A|-------------------------------------------------------------------|
E|-------------------------------------------------------------------|


e|--t18p14p13p11---------|         e|--t19p14p13p11-------|
B|-----------------------|         B|---------------------|
G|-----------------------|         G|---------------------|
D|-----------------------|  X4     D|---------------------|   X4
A|-----------------------|         A|---------------------|    
E|-----------------------|         E|---------------------| 


e|--t18p14p13p11---------|         e|--t16p13p10p9--------|                            
B|-----------------------|         B|---------------------|                            
G|-----------------------|         G|---------------------|                                
D|-----------------------|  X4     D|---------------------|   X4                             
A|-----------------------|         A|---------------------|                                 
E|-----------------------|         E|---------------------|                               



e|--t18p14p13p11---------|         e|--t19p14p13p11-------|                    
B|-----------------------|         B|---------------------|                                  
G|-----------------------|         G|---------------------|                              
D|-----------------------|  X4     D|---------------------|   X4                                 
A|-----------------------|         A|---------------------|                               
E|-----------------------|         E|---------------------|                              

e|-21p19p18----18h19/16------|
B|----------21---------------|
G|---------------------------|
D|---------------------------|
A|---------------------------|
E|---------------------------|


Whoa part
Guitar 1
e|------------------------------------------------------------------|
B|------------------------------------------------------------------|
G|------------------------------------------------------------------|
D|-4---------6----8--8-8--6--6-6----4---------6---------------------|
A|-2----4----4----6--6-6--4--4-4----2----4----4----6-6-6-6-8h9-8----|
E|------2--------------------------------2-----------------------9--|
                     x x     x x                   x x x x

e|------------------------------------------------------------------|
B|------------------------------------------------------------------|
G|------------------------------------------------------------------|
D|-4-------------------------6--------------------------------------|
A|-2-2-2-2-2-2-2--4---4---4--4-4-4-4-4-4-4-6-6-4-4-----4-4----------|
E|----------------2-2-2-2-2------------------------6-6--------------|
     x x x x x x    x   x      x x x x x x x x x x x x 

e|---------------------------------------------------------|
B|---------------------------------------------------------|
G|---------------------------------------------------------|
D|-4-------------------------6-----------------------------|
A|-2-2-2-2-2-2-2--4---4---4--4-4-4-4-4-4-4--6-6-4h6-6------|
E|----------------2-2-2-2-2--------------------------------|
     x x x x x x    x   x      x x x x x x

e|---------------------------------|
B|---------------------------------|
G|---------------------------------|
D|-4---------6---------------------|
A|-2----4----4----6-6-4h6-6--------|
E|------2--------------------------|
                  
e|-----------------------------------------|
B|-----------------------------------------|
G|-----------------------------------------|
D|-4---------6-----------------------------|
A|-2----4----4---6-6-6-6-6-6-6-6--8-9-8----|
E|------2-------------------------------9--|
                 x x x x x x x x                   

e|---------------------------------|
B|---------------------------------|
G|---------------------------------|
D|-4---------6---------------------|
A|-2----4----4----6-6-4h6-6--------|
E|------2--------------------------|

e|----------------|
B|----------------|
G|----------------|
D|-4---------6----|
A|-2----4----4----|
E|------2---------|

Guitar 2
e|------------------------------------------------------------------|
B|------------------------------------------------------------------|
G|------------------------------------------------------------------|
D|-4---------6----8--8-8--6--6-6----4---------6----4-4-4-4-6h8-6----|
A|-2----4----4----6--6-6--4--4-4----2----4----4------------------8--|
E|------2--------------------------------2--------------------------|
                     x x     x x                   x x x x

e|--------------------------------------------------------------|
B|--------------------------------------------------------------|
G|--------------------------------------------------------------|
D|-4-------------------------6-------------4-4-3-3-----3-3------|
A|-2-2-2-2-2-2-2--4---4---4--4-4-4-4-4-4-4---------4-4----------|
E|----------------2-2-2-2-2-------------------------------------|
     x x x x x x    x   x      x x x x x x x x x x x x x x

e|---------------------------------------------------------|
B|---------------------------------------------------------|
G|---------------------------------------------------------|
D|-4-------------------------6----------------4-3h4-4------|
A|-2-2-2-2-2-2-2--4---4---4--4-4-4-4-4-4-4--6--------------|
E|----------------2-2-2-2-2--------------------------------|
     x x x x x x    x   x      x x x x x x

e|------------------------------|
B|------------------------------|
G|------------------------------|
D|-4---------6------4-3h4-4-----|
A|-2----4----4----6-------------|
E|------2-----------------------|
                  
e|----------------------------------------|
B|----------------------------------------|
G|----------------------------------------|
D|-4---------6---4-4-4-4-4-4-4-4-6-8-6----|
A|-2----4----4-------------------------8--|
E|------2---------------------------------|
                 x x x x x x x x                   

e|-------------------------------|
B|-------------------------------|
G|-------------------------------|
D|-4---------6------4-3h4-4------|
A|-2----4----4----6--------------|
E|------2------------------------|

e|----------------|
B|----------------|
G|----------------|
D|-4---------6----|
A|-2----4----4----|
E|------2---------|

SOLO
Guitar 1
e|--------------------------------6-----------6-9-6h9p6-------------------------------|
B|-7--7-7-7--7-7-7----7--7-7-7--9---9-7-9p7-9-----------9-7--9/11\9-7--9*/7-9*/7------|
G|-----------------6------------------------------------------------------------------|
D|------------------------------------------------------------------------------------|
A|------------------------------------------------------------------------------------|
E|------------------------------------------------------------------------------------|

e|-------------------------------------------|
B|-7--7-7-7--7-7-7----9--9-9-9--7-9-7--------|
G|-----------------6------------------6------|
D|-------------------------------------------|
A|-------------------------------------------|
E|-------------------------------------------|

e|----------------------------------------------11*--------|
B|-t11p7p4h7-t11p7-t12p7-t14p7p4h7-t11p7-t12p7-------------|
G|---------------------------------------------------------|
D|---------------------------------------------------------|
A|---------------------------------------------------------|
E|---------------------------------------------------------|

Guitar 2
e|--------------------------------------------------------|
B|-----------------------------6-7-6----------------------|
G|-8--8-8-8--8-8-8----8--8-8-8-------6--------------------|
D|-----------------8---------------------------8--6-------|
A|---------------------------------------4--4--6--4-------|
E|---------------------------------------2--1--6--4-------|

e|---------------------------------------------------|
B|---------------------6--6-6-6---6------------------|
G|-8--8-8-8--8-8-8--------------8---8-6--------------|
D|-----------------8---------------------------------|
A|---------------------------------------------------|
E|---------------------------------------------------|

e|------------------------------------------------------------------|
B|------------------------------------------------------------------|
G|--t11p8p4h8-t11p8-t13p8-t15p8p4h8-t11p8-t13p8-8*------------------|
D|------------------------------------------------------------------|
A|------------------------------------------------------------------|
E|------------------------------------------------------------------|

Main solo
e|-------------------9------------------|
B|-9h10p9h10p9h10h12---9h10p9-----------|
G|----------------------------9*--------|
D|--------------------------------------|
A|--------------------------------------|
E|--------------------------------------|

e|--20-16h20p16-------------------------------------------------------------15*--------|
B|--------------21-17h21p17-------------------------------------19-15h19p15------------|
G|--------------------------21-16h21p16-------------19-14h19p14------------------------|
D|--------------------------------------19-14h19p14------------------------------------|
A|-------------------------------------------------------------------------------------|
E|-------------------------------------------------------------------------------------|

e|------------------------------t19p15-t19p15-t19p15-t19p15------------------|
B|-t19p15-t19p15-t19p15-t19p15-----------------------------------------------|
G|---------------------------------------------------------------------------|
D|---------------------------------------------------------------------------|
A|---------------------------------------------------------------------------|
E|---------------------------------------------------------------------------|

e|-t21p17-t21p17-t21p17-t21p17------------------------------t22p19-t22p19-t22p19-t22p19--|
B|------------------------------t22p19-t22p19-t22p19-t22p19------------------------------|
G|---------------------------------------------------------------------------------------|
D|---------------------------------------------------------------------------------------|
A|---------------------------------------------------------------------------------------|
E|---------------------------------------------------------------------------------------|

e|-17-15-14-17-15-14--------------------------------------------------------|
B|-------------------17-15-14-17-15-14--------------------/15-/17-19*-------|
G|-------------------------------------16-14-13-16-14-13--------------------|
D|--------------------------------------------------------------------------|
A|--------------------------------------------------------------------------|
E|--------------------------------------------------------------------------|

Bridge
Guitar 1
e|-------------------------------------------------------------------------|
B|-------------------------------------------------------------------------|
G|-------------------------------------------------------------------------|
D|-4----4-------------------------------------------------4-2--------------|
A|-2----2--5----5--2----2--5----5--4---------4---------4------5-4-5-4------|
E|---------3----3--0----0--3----3--2-2-2-2-2-2-2-2-2-2-2--------------5----|
                                     x x x x   x x x x   

Guitar 2
e|-----------------------------------------------------------------------|
B|-----------------------------------------------------------------------|
G|-----------------------------------------------------------------------|
D|-4----4----------------------------------------------------------------|
A|-2----2--5----5--2----2--5----5--4---------4---------4--5-4-2---2------|
E|---------3----3--0----0--3----3--2-2-2-2-2-2-2-2-2-2-2--------5---5-2--|
                                     x x x x   x x x x

Both
e|----------------------------------------------------------------------|
B|----------------------------------------------------------------------|
G|----------------------------------------------------------------------|
D|-----------------4-------------------------------7---5---4-5-4--------|
A|-----2-----5---------5---4-5-4-------4-----5--------------------------|
E|-2-2---2-2---2-2---2---2---------3-3---3-3---3-3---3---3--------------|
   x x   x x   x x   x   x         x x   x x   x x   x   x

e|----------------------------------------------------------|
B|----------------------------------------------------------|
G|----------------------------------------------------------|
D|----------------------------------------------------------|
A|-2---------2---------2-----2---------2---------2----------|
E|-0-0-0-0-0-0-0-0-0-0-0-0-0-0-0-0-0-0-0-0-0-0-0-0-0-0------|
     x x x x   x x x x   x x   x x x x   x x x x   x x

e|-----------------------------------------------------------|
B|-----------------------------------------------------------|
G|-----------------------------------------------------------|
D|-2---------2---------2-----2---------2---------2-----------|
A|-0-0-0-0-0-0-0-0-0-0-0-0-0-0-0-0-0-0-0-0-0-0-0-0-0-0-------|
E|-----------------------------------------------------------|
     x x x x   x x x x   x x   x x x x   x x x x   x x

e|-----------------------------------------------------------|
B|-----------------------------------------------------------|
G|-----------------------------------------------------------|
D|-4---------4---------4-----4---------4---------4-----------|
A|-2-2-2-2-2-2-2-2-2-2-2-2-2-2-2-2-2-2-2-2-2-2-2-2-2-2-------|
E|-----------------------------------------------------------|
     x x x x   x x x x   x x   x x x x   x x x x   x x

Guitar 1
e|-----------------------------------------------------|
B|-----------------------------------------------------|
G|----------------------------------------6-6-6-6------|
D|--6-6--6-6--6---4-4-4-4-6-6-6-6-8-8-8-8--------------|
A|--4-4--4-4--4----------------------------------------|
E|-----------------------------------------------------|
                  x x x x x x x x x x x x x x x x
   
Guitar 2
e|-----------------------------------------------------|
B|-----------------------------------------------------|
G|-----------------------------------------------------|
D|--6-6--6-6--6---------------------------3-3-3-3------|
A|--4-4--4-4--4-------------------4-4-4-4--------------|
E|----------------2-2-2-2-4-4-4-4----------------------|
                  x x x x x x x x x x x x x x x x 


Chorus
Both Guitars
e|-----------------------------------------------------------------------------------|
B|-----------------------------------------------------------------------------------|
G|----------6--6-6------------8-----------------6---------8---6----------------------|
D|----------6--6-6------------8----3---6-3-4----4---------8---6----4---4-3-4---------|
A|--4----4--4--4-4--4--4-4----6----1---4-1-2-------4--4---6---4----2---2-2-2---------|
E|--2----1--4--4-4--1--1-1----6--------------------2--1---6---4----------------------|
               x x     x x
e|------------------------------------------------------|
B|------------------------------------------------------|
G|------------------------------------------------------|
D|-6------6------6--------------------------------------|
A|-4-4444-4-4444-4----------------6666-9999-------------|
E|------------------10101010-6666-----------------------|
     xxxx   xxxx    xxxxxxxx xxxx xxxx xxxx                                          
Guitar 1
e|------------------------------------------------------|
B|------------------------------------------------------|
G|------------------------------------------------------|
D|----8888-6666-8888-9999-8888-6666-8888----------------|
A|-66---------------------------------------------------|
E|------------------------------------------------------|
   xx xxxx xxxx xxxx xxxx xxxx xxxx xxxx

e|------------------------------------------------------|
B|------------------------------------------------------|
G|------------------------------------------------------|
D|----8888-6666-8888-9999-8888-6666-8888----------------|
A|-55---------------------------------------------------|
E|------------------------------------------------------|
   xx xxxx xxxx xxxx xxxx xxxx xxxx xxxx

e|------------------------------------------------------|
B|------------------------------------------------------|
G|------------------------------------------------------|
D|----8888-6666-8888-9999-8888-6666-8888----------------|
A|-44---------------------------------------------------|
E|------------------------------------------------------|
   xx xxxx xxxx xxxx xxxx xxxx xxxx xxxx

Guitar 2
e|------------------------------------------------------|
B|------------------------------------------------------|
G|------------------------------------------------------|
D|----4444-3333-4444-6666-4444-3333-4444----------------|
A|-66---------------------------------------------------|
E|------------------------------------------------------|
   xx xxxx xxxx xxxx xxxx xxxx xxxx xxxx

e|------------------------------------------------------|
B|------------------------------------------------------|
G|------------------------------------------------------|
D|----4444-3333-4444-6666-4444-3333-4444----------------|
A|-55---------------------------------------------------|
E|------------------------------------------------------|
   xx xxxx xxxx xxxx xxxx xxxx xxxx xxxx

e|------------------------------------------------------|
B|------------------------------------------------------|
G|------------------------------------------------------|
D|----4444-3333-4444-6666-4444-3333-4444----------------|
A|-44---------------------------------------------------|
E|------------------------------------------------------|
   xx xxxx xxxx xxxx xxxx xxxx xxxx xxxx

Guitar 1
e|----------------------------------------------------------------------------------------|
B|----------------------------------------------------------------------------------------|
G|--5-5-5-5-5-5------------------------------------8--6-----------------------------------|
D|--6-6-6-6-6-6----4----4444-3333-4444-6666--------8--6--4----6---------------------------|
A1--3-3-3-3-3-3----2-------------------------4--4--6--4--2----4----44444444444444--4------|
E|-------------------------------------------2--1--6--4------------22222222222222--2------|
                        xxxx xxxx xxxx xxxx                                  

Guitar 2
e|----------------------------------------------------------------------------------------|
B|----------------------------------------------------------------------------------------|
G|--5-5-5-5-5-5---------3333-1111-3333-4444--------8--6-----------------------------------|
D|--6-6-6-6-6-6----4-------------------------------8--6--4----6---------------------------|
A1--3-3-3-3-3-3----2-------------------------4--4--6--4--2----4----44444444444444--4------|
E|-------------------------------------------2--1--6--4------------22222222222222--2------|
                        xxxx xxxx xxxx xxxx                             

End lead
e|--19b21br19-19-18-16--------------------------------------|
B|---------------------19/21-21b23br21--19p16---------------|
G|--------------------------------------------18------------|
D|----------------------------------------------------------|
A|----------------------------------------------------------|
E|----------------------------------------------------------|

e|------------14-18-16-14-18-16-14------------------------------------------------------------|
B|---------16----------------------18-16-14-18-16-14------------------------------------------|
G|------15-------------------------------------------16-15-13-16-15-13------------------------|
D|---16----------------------------------------------------------------16-15-13-16-15-13------|
A|--------------------------------------------------------------------------------------------|
E|--------------------------------------------------------------------------------------------|

e|--------------------------------------------------------------------------------------------|
B|--------------------------------------------------------------------------14-16-18-14-16-18-|
G|--------------------------------------------------------13-15-16-13-15-16-------------------|
D|--------------------------------------13-15-16-13-15-16-------------------------------------|
A|-16-14-13-16-14-13--13-14-16-13-14-16-------------------------------------------------------|
E|--------------------------------------------------------------------------------------------|

e|-18-16-14-------------------------------------|
B|----------18-16-14---------------19*----------|
G|-------------------16-15-13-------------------|
D|----------------------------16----------------|
A|----------------------------------------------|
E|----------------------------------------------|
Добавлено: 28.06.2015
Другие материалы по этой песне:

Страница создана 28.06.2015
http://primanota.ru/babymetal/road-of-resistance-chords.htm
Привет, Гость.
Предлагаем пройти революционный курс по гитаре.
Подарок от PrimaNota.Ru, забирай!