PrimaNota.ru - самый крупный в мире бесплатный архив песенных текстов, аккордов, табулатур и нот


Babymetal - Meta Taro - таба, видео

Регистрация Запомнить меня
Войти через:  Facebook Google Twitter Vk Yandex Mail.ru

Babymetal - Meta Taro - таба, видео

Печатать
Просмотров: 103
Уроки эстрадного вокала в Санкт-Петербурге
[Intro]

        PM--|     PM--|     PM--|   PM-|  PM-|     PM--|    PM--|      PM--|  PM-|  PM--|
e|---------------------------------------------------------------------------------------|
b|---------------------------------------------------------------------------------------|
G|---------------------------------------------------------------------------------------|
D|---------------------------------------------------------------------------------------|
A|--6---------6---------6---------6-----6-----2---------4---------6---------6-----6------|
E|--6---------6---------6---------6-----6-----2---------4---------6---------6-----6------|
B|--4---4-4-4-4---4-4-4-4---4-4-4-4-4-4-4-4-4-0---0-0-0-2---2-2-2-4---4-4-4-4-4-4-4-4-4--|

        PM--|     PM--|     PM--|   PM-|  PM-|     PM--|    PM--|      PM--|  PM-----|
e|------------------------------------------------------------------------------------|
b|------------------------------------------------------------------------------------|
G|------------------------------------------------------------------------------------|
D|------------------------------------------------------------------------------------|
A|--6---------6---------6---------6-----6-----2---------4---------6---------6---------|
E|--6---------6---------6---------6-----6-----2---------4---------6---------6---------|
B|--4---4-4-4-4---4-4-4-4---4-4-4-4-4-4-4-4-4-0---0-0-0-2---2-2-2-4---4-4-4-4--2---2--|


[Verse]

        PM--|     PM--|     PM--|   PM-|  PM-|     PM--|    PM--|      PM--|  PM-|  PM---|
e|---------------------------------------------------------------------------------------|
b|---------------------------------------------------------------------------------------|
G|---------------------------------------------------------------------------------------|
D|---------------------------------------------------------------------------------------|
A|--6---------6---------6---------6-----6-----2---------4---------6---------6-----6------|
E|--6---------6---------6---------6-----6-----2---------4---------6---------6-----6------|
B|--4---4-4-4-4---4-4-4-4---4-4-4-4-4-4-4-4-4-0---0-0-0-2---2-2-2-4---4-4-4-4-4-4-4-4-4--|

        PM--|     PM--|     PM--|   PM-|  PM-|                         PM--|    PM----|
e|------------------------------------------------------------------------------------|
b|------------------------------------------------------------------------------------|
G|------------------------------------------------------------------------------------|
D|------------------------------------------------------------------------------------|
A|--6---------6---------6---------6-----6-----2---------4---------6---------6---------|
E|--6---------6---------6---------6-----6-----2---------4---------6---------6---------|
B|--4---4-4-4-4---4-4-4-4---4-4-4-4-4-4-4-4-4-0---------2---------4---4-4-4-4--2---2--|

       PM--|     PM--|     PM--|   PM-|  PM-|     PM--|    PM---|      PM--|  PM-|  PM---|
e|---------------------------------------------------------------------------------------|
b|---------------------------------------------------------------------------------------|
G|---------------------------------------------------------------------------------------|
D|---------------------------------------------------------------------------------------|
A|--6---------6---------6---------6-----6-----2---------4---------6---------6-----6------|
E|--6---------6---------6---------6-----6-----2---------4---------6---------6-----6------|
B|--4---4-4-4-4---4-4-4-4---4-4-4-4-4-4-4-4-4-0---0-0-0-2---2-2-2-4---4-4-4-4-4-4-4-4-4--|

        PM--|     PM--|     PM--|   PM-|  PM-|    PM---|   PM----|   PM------------|
e|---------------------------------------------------------------------------------|
b|---------------------------------------------------------------------------------|
G|---------------------------------------------------------------------------------|
D|---------------------------------------------------------------------------------|
A|--6---------6---------6---------6-----6-----2---------4---------6---------6---4--|
E|--6---------6---------6---------6-----6-----2---------4---------6---------6---4--|
B|--4---4-4-4-4---4-4-4-4---4-4-4-4-4-4-4-4-4-0---0-0-0-2---2-2-2-4---4-4-4-4---2--|


[Pre Chorus]

 PM---------------------------------------------------------------------------------------|
e|-----------------------------------------------------------------------------------------|
b|-----------------------------------------------------------------------------------------|
G|-----------------------------------------------------------------------------------------|
D|-----------------------------------------------------------------------------------------|
A|-------------------------------------------6---6-6-6-8---8-8-8-10--10-10-10-10-10-10-10--|
E|--3--3-3-3-3---3-3-3-3---3-3-3-3-3-3-3-3-3-4---4-4-4-6---6-6-6-8---8--8--8--8--8--8--8---|
B|--1--1-1-1-1---1-1-1-1---1-1-1-1-1-1-1-1-1-----------------------------------------------|

  PM--------------------------------------------------------------------------------------|
e|-----------------------------------------------------------------------------------------|
b|-----------------------------------------------------------------------------------------|
G|-----------------------------------------------------------------------------------------|
D|-------------------------------------------6---------8---------10---------------------7--|
A|--3--------3---------3---------------------6---6-6-6-8---8-8-8-10--10-10-10-10-10-10-----|
E|--3--3-3-3-3---3-3-3-3---3-3-3-3-3-3-3-3-3-4---4-4-4-6---6-6-6-8---8--8--8--8--8--8------|
B|--1--1-1-1-1---1-1-1-1---1-1-1-1-1-1-1-1-1-----------------------------------------------|


[Chorus]

e|------------------------------------------------------------------------------|
b|------------------------------------------------------------------------------|
G|------------------------------------------------------------------------------|
D|------------------------------------------------------------------------------|
A|--6---6-6-6-6---6-6-6-6---6-6-6-6-6-6-6-6-6-6-6---6-6-6-6---6-6-6-6--5--4-----|
E|--6---6-6-6-6---6-6-6-6---6-6-6-6-6-6-6-6-6-6-6---6-6-6-6---6-6-6-6--5--4-----|
B|--4---4-4-4-4---4-4-4-4---4-4-4-4-4-4-4-4-4-4-4---4-4-4-4---4-4-4-4--3--2--\--|

e|-------------------------------------------------------------------------------------|
b|-------------------------------------------------------------------------------------|
G|----------------------------------------------------------------------3---3-3-3-3-4--|
D|--6---6-6-6-8---8-8-8-----------5-5-5-5-5-5-5-5-5-3---3-3-3-3---3-3-3-3---3-3-3-3-5--|
A|--6---6-6-6-8---8-8-8-3---3-3-3-5-5-5-5-5-5-5-5-5-3---3-3-3-3---3-3-3-1---1-1-1-1-2--|
E|--4---4-4-4-6---6-6-6-3---3-3-3-3-3-3-3-3-3-3-3-3-1---1-1-1-1---1-1-1----------------|
B|----------------------1---1-1-1------------------------------------------------------|

e|------------------------------------------------------------------------------|
b|------------------------------------------------------------------------------|
G|------------------------------------------------------------------------------|
D|------------------------------------------------------------------------------|
A|--6---6-6-6-6---6-6-6-6---6-6-6-6-6-6-6-6-6-6-6---6-6-6-6---6-6-6-6--5--4-----|
E|--6---6-6-6-6---6-6-6-6---6-6-6-6-6-6-6-6-6-6-6---6-6-6-6---6-6-6-6--5--4-----|
B|--4---4-4-4-4---4-4-4-4---4-4-4-4-4-4-4-4-4-4-4---4-4-4-4---4-4-4-4--3--2--\--|


e|------------------------------------------------------------------------------------------|
b|------------------------------------------------------------------------------------------|
G|------------------------------------------------------------------------------------------|
D|--6---6-6-6-8---8-8-8-9---9--9--9--9---9--9--9--6---6-6-6-8---8-8-8-10--10-10-10-10-10-10-|
A|--6---6-6-6-8---8-8-8-10--10-10-10-10--10-10-10-6---6-6-6-8---8-8-8-10--10-10-10-10-10-10-|
E|--4---4-4-4-6---6-6-6-7---7--7--7--8---8--8--8--4---4-4-4-6---6-6-6-8---8--8--8--8--8--8--|
B|------------------------------------------------------------------------------------------|


Keys Solo (Rhythm Guitar)
        PM-----------------------------------------------------------------------------|
e|-------------------------------------------------------------------------------------|
b|-------------------------------------------------------------------------------------|
G|-------------------------------------------------------------------------------------|
D|--------------------------------------------------------------9---9-9-9-8---8-8-8----|
A|--6---6-6-6-6---6-6-6-8---8-8-8-9---9-9-9-2---2-2-2-2---2-2-2-9---9-9-9-8---8-8-8----|
E|--6---6-6-6-6---6-6-6-8---8-8-8-9---9-9-9-2---2-2-2-2---2-2-2-7---7-7-7-6---6-6-6----|
B|--4---4-4-4-4---4-4-4-6---6-6-6-7---7-7-7-0---0-0-0-0---0-0-0------------------------|

        PM--|     PM--|     PM--|     PM-----------------------------------------------|
e|-------------------------------------------------------------------------------------|
b|-------------------------------------------------------------------------------------|
G|-------------------------------------------------------------------------------------|
D|------------------------------------------6-6-6-6---6-6-6-6---8----------------------|
A|--6---6-6-6-6---6-6-6-8---8-8-8-9---9-9-9-6-6-6-6---6-6-6-6---8---\3-----------------|
E|--6---6-6-6-6---6-6-6-8---8-8-8-9---9-9-9-4-4-4-4---4-4-4-4---6---\3-----------------|
B|--4---4-4-4-4---4-4-4-6---6-6-6-7---7-7-7-------------------------\1-----------------|


[Post solo]

e|---------------------------------------------------------------------------|
b|---------------------------------------------------------------------------|
G|---------------------------------------------------------------------------|
D|----------6---8--------------6---8-----------------------------------------|
A|--3-------6---8---3----3-----6---8---3-------------------------------------|
E|--3-------4---6---3----3-----4---6---3-------------------------------------|
B|--1---------------1----1-------------1-------------------------------------|

Key change

  PM---------------------------------------------------------------------------------|
e|-----------------------------------------------------------------------------------|
b|-----------------------------------------------------------------------------------|
G|-----------------------------------------------------------------------------------|
D|-------------------------------------------7---7-7-7-9---9-9-9---------------------|
A|-4---4-4-4-4---4-4-4-4---4-4-4-4-4-4-4-4-4-7---7-7-7-9---9-9-9-4---4-4-4-4-4-4-4---|
E|-4---4-4-4-4---4-4-4-4---4-4-4-4-4-4-4-4-4-5---5-5-5-7---7-7-7-4---4-4-4-4-4-4-4---|
B|-2---2-2-2-2---2-2-2-2---2-2-2-2-2-2-2-2-2---------------------2---2-2-2-2-2-2-2---|

 PM----------------------------------------------------------------------------------|
e|-----------------------------------------------------------------------------------|
b|-----------------------------------------------------------------------------------|
G|-----------------------------------------------------------------------------------|
D|-------------------------------------------7---7-7-7-9---9-9-9---------------------|
A|-4---4-4-4-4---4-4-4-4---4-4-4-4-4-4-4-4-4-7---7-7-7-9---9-9-9-4---4-4-4-4-4-4-4---|
E|-4---4-4-4-4---4-4-4-4---4-4-4-4-4-4-4-4-4-5---5-5-5-7---7-7-7-4---4-4-4-4-4-4-4---|
B|-2---2-2-2-2---2-2-2-2---2-2-2-2-2-2-2-2-2---------------------2---2-2-2-2-2-2-2---|


[Chorus] (Same as before but moved up a semi tone)

e|---------------------------------------------------------------------------|
b|---------------------------------------------------------------------------|
G|---------------------------------------------------------------------------|
D|---------------------------------------------------------------------------|
A|--7---7-7-7-7---7-7-7-7---7-7-7-7-7-7-7-7-7-7---7-7-7-7---7-7-7-7--6--5----|
E|--7---7-7-7-7---7-7-7-7---7-7-7-7-7-7-7-7-7-7---7-7-7-7---7-7-7-7--6--5----|
B|--5---5-5-5-5---5-5-5-5---5-5-5-5-5-5-5-5-5-5---5-5-5-5---5-5-5-5--4--3----|


e|-------------------------------------------------------------------------------------|
b|-------------------------------------------------------------------------------------|
G|----------------------------------------------------------------------4---4-4-4-4-5--|
D|--7---7-7-7-9---9-9-9-----------6-6-6-6-6-6-6-6-6-4---4-4-4-4---4-4-4-4---4-4-4-4-6--|
A|--7---7-7-7-9---9-9-9-4---4-4-4-6-6-6-6-6-6-6-6-6-4---4-4-4-4---4-4-4-2---2-2-2-2-3--|
E|--5---5-5-5-7---7-7-7-4---4-4-4-4-4-4-4-4-4-4-4-4-2---2-2-2-2---2-2-2----------------|
B|----------------------2---2-2-2------------------------------------------------------|

e|---------------------------------------------------------------------------|
b|---------------------------------------------------------------------------|
G|---------------------------------------------------------------------------|
D|---------------------------------------------------------------------------|
A|--7---7-7-7-7---7-7-7-7---7-7-7-7-7-7-7-7-7-7---7-7-7-7---7-7-7-7--6--5----|
E|--7---7-7-7-7---7-7-7-7---7-7-7-7-7-7-7-7-7-7---7-7-7-7---7-7-7-7--6--5----|
B|--5---5-5-5-5---5-5-5-5---5-5-5-5-5-5-5-5-5-5---5-5-5-5---5-5-5-5--4--3---\|

e|-----------------------------------------------------------------------------|
b|-----------------------------------------------------------------------------|
G|-----------------------------------------------------------------------------|
D|--7--7-7-7-9---9-9-9-10--10-10-10-10-11--11-11-11-11-11-11-11-11-11----------| x2
A|--7--7-7-7-9---9-9-9-10--10-10-10-10-11--11-11-11-11-11-11-11-11-11----------|
E|--5--5-5-5-7---7-7-7-8---8--8--8--8--9---9--9--9--9--9--9--9--9--9-----------|
B|-----------------------------------------------------------------------------|


e|---------------------------------------------------------------------------|
b|---------------------------------------------------------------------------|
G|---------------------------------------------------------------------------|
D|--7---9---10--11-------------9---------------------------------------------|
A|--7---9---10--11----9--------9---------------------------------------------|
E|--5---7---8---9-----9--------7---------------------------------------------|
B|--------------------7------------------------------------------------------|


[Outro]

e|------------------------------------------------------------------------------------------|
b|------------------------------------------------------------------------------------------|
G|--------------------------------------------------------4---4-4-4-------------------------|
D|----------------------7---7-7-7-6-6-6-6-6-6-6-4---4-4-4-4---4-4-4-------------------------| x2
A|--7---7-7-7-7---7-7-7-7---7-7-7-6-6-6-6-6-6-6-4---4-4-4-2---2-2-2--7---7-7-7-7-7-7-7-7-7--|
E|--7---7-7-7-7---7-7-7-5---5-5-5-4-4-4-4-4-4-4-2---2-2-2------------7---7-7-7-7-7-7-7-7-7--|
B|--5---5-5-5-5---5-5-5----------------------------------------------5---5-5-5-5-5-5-5-5-5--|


************************************


| /   Slide up
| \   Slide down
| PM  Palm mute

************************************
Добавлено: 21.10.2017
Вам также может быть интересно:
Другие материалы по этой песне:
  • Аккорды и текст

Страница создана 21.10.2017
http://primanota.ru/babymetal/meta-taro-chords.htm
Привет, Гость.
Предлагаем пройти революционный курс по гитаре.
Подарок от PrimaNota.Ru, забирай!