PrimaNota.ru - самый крупный в мире бесплатный архив песенных текстов, аккордов, табулатур и нот


Avenged Sevenfold - Diamonds In The Rough (album) - таба, видео

Регистрация Запомнить меня
Войти через:  Facebook Google Twitter Vk Yandex Mail.ru

Avenged Sevenfold - Diamonds In The Rough (album) - таба, видео

Печатать
Просмотров: 176
1.Demons-SYNYSTER666
2.Girl I Know-THERAPTURE
3.Crossroads-THERAPTURE
4.Flash Of The Blade-TONYLOAF23
5.Until The End-TJEETA12
6.Tension-CONORG7
7.Walk-MIKE242787
8.The Fight-
9.Dancing Dead-UNREGISTERED           

All In Drop-D except for "Flash Of The Blade"


 
                              1.DEMONS              
                       Intro
Rhythm Guitar X8
-------------------------------------|
-------------------------------------|
-------------------------------------|
-0--------------0-|-(0)--------------|
-0----3-0-5-0-7-0-|-(0)-0-3-0-5-0-7--|
-0----3-0-5-0-7-0-|-(0)-0-3-0-5-0-7--|

Lead Guitar (with wah) X2
-/10~----|-(10)----|-/8~----|-(8)----|-/7~---|-(7)-----|-/5~---|-(5)---|
---------|---------|--------|--------|-------|---------|-------|-------|
---------|---------|--------|--------|-------|---------|-------|-------|
---------|---------|--------|--------|-------|---------|-------|-------|
---------|---------|--------|--------|-------|---------|-------|-------|
---------|---------|--------|--------|-------|---------|-------|-------|

Pre Verse
|-17-13----------------|
|-------15-------------|
|----------14----------|
|-------------15-------|
|----------------17-16-|
|----------------------|
|
|-13-10----------------|
|-------10-------------|
|----------10----------|
|-------------12-------|
|----------------13-12-|
|----------------------|


Verse (Palm Mute all opens apart from the one on the first bar or the 4+)
|----------------|---------------|----------------|-17-13--------------|
|----------------|---------------|----------------|------15------------|
|----------------|---------------|----------------|--------14----------|
|-0--------------|-------------5-|(5)-------------|----------15------0-|
|-0--0-0-0-0-0-3h|5-0-5-0-5h6--5-|(5)-0-0-0-0-0-0-|------------17-16-0-|
|-0--0-0-0-0-0-3h|5-0-5-0-5h6--5-|(5)-0-0-0-0-0-0-|------------------0-|
|
|----------------|---------------|----------------|-13-10--------------|
|----------------|---------------|----------------|------10------------|
|----------------|---------------|----------------|--------10----------|
|-0--------------|-------------5-|(5)-------------|----------12------0-|
|-0--0-0-0-0-0-3h|5-0-5-0-5h6--5-|(5)-0-0-0-0-0-0-|------------13-12-0-|
|-0--0-0-0-0-0-3h|5-0-5-0-5h6--5-|(5)-0-0-0-0-0-0-|------------------0-|

|----------------|---------------|----------------|-17-13--------------|
|----------------|---------------|----------------|------15------------|
|----------------|---------------|----------------|--------14----------|
|----------------|-------------5-|(5)-------------|----------15------0-|
|----0-0-0-0-0-3h|5-0-5-0-5h6--5-|(5)-0-0-0-0-0-0-|------------17-16-0-|
|----0-0-0-0-0-3h|5-0-5-0-5h6--5-|(5)-0-0-0-0-0-0-|------------------0-|
|
|----------------|---------------|----------------|-13-10--------------|
|----------------|---------------|----------------|------10------------|
|----------------|---------------|----------------|--------10----------|
|----------------|-------------5-|(5)-------------|----------12------0-|
|----0-0-0-0-0-3h|5-0-5-0-5h6--5-|(5)-0-0-0-0-0-0-|------------13-12-0-|
|----0-0-0-0-0-3h|5-0-5-0-5h6--5-|(5)-0-0-0-0-0-0-|------------------0-|

|----------------|---------------|----------------|-17-13--------------|
|----------------|---------------|----------------|------15------------|
|----------------|---------------|----------------|--------14----------|
|----------------|-------------5-|(5)-------------|----------15------0-|
|----0-0-0-0-0-3h|5-0-5-0-5h6--5-|(5)-0-0-0-0-0-0-|------------17-16-0-|
|----0-0-0-0-0-3h|5-0-5-0-5h6--5-|(5)-0-0-0-0-0-0-|------------------0-|
|
|----------------|---------------|----------------|-13-10--------------|
|----------------|---------------|----------------|------10------------|
|----------------|---------------|----------------|--------10----------|
|----------------|-------------5-|(5)-------------|----------12------0-|
|----0-0-0-0-0-3h|5-0-5-0-5h6--5-|(5)-0-0-0-0-0-0-|------------13-12-0-|
|----0-0-0-0-0-3h|5-0-5-0-5h6--5-|(5)-0-0-0-0-0-0-|------------------0-|

|----------------|---------------|----------------|-17-13--------------|
|----------------|---------------|----------------|------15------------|
|----------------|---------------|----------------|--------14----------|
|----------------|-------------5-|(5)-------------|----------15------1-|
|----0-0-0-0-0-3h|5-0-5-0-5h6--5-|(5)-0-0-0-0-0-0-|------------17-16-1-|
|----0-0-0-0-0-3h|5-0-5-0-5h6--5-|(5)-0-0-0-0-0-0-|------------------1-|
|
|----------------|---------------|----------------|-13-10--------------|
|----------------|---------------|----------------|------10------------|
|----------------|---------------|----------------|--------10----------|
|----------------|-------------5-|(5)-------------|----------12------1-|
|----0-0-0-0-0-3h|5-0-5-0-5h6--5-|(5)-0-0-0-0-0-0-|------------13-12-1-|
|----0-0-0-0-0-3h|5-0-5-0-5h6--5-|(5)-0-0-0-0-0-0-|------------------1-|


Pre Chorus
Both Guitars
|-----------------|-----------------|-----------------|-------------------|
|-----------------|-----------------|-----------------|-------------------|
|-----------------|-----------------|-----------------|-------------------|
|-(1)-1-1-1-1-1-1-|-1-1-1-1-1-1-1-1-|-7-7-7-7-7-7-7-7-|-8-8-8-8-8-8-8-8-8-|
|-(1)-1-1-1-1-1-1-|-1-1-1-1-1-1-1-1-|-5-5-5-5-5-5-5-5-|-5-5-5-5-5-5-5-5-5-|
|-(1)-1-1-1-1-1-1-|-1-1-1-1-1-1-1-1-|-4-4-4-4-4-4-4-4-|-5-5-5-5-5-5-5-5-5-|

|-----------------|-----------------|-----------------|------------------|
|-----------------|-----------------|-----------------|------------------|
|-----------------|-----------------|-----------------|------------------|
|-8-8-8-8-8-8-8-8-|-7-7-7-7-7-7-7-7-|-1-1-1-1-1-1-1-1-|-2-2-2-2-2-2-2-2--|
|-8-8-8-8-8-8-8-8-|-3-3-3-3-3-3-3-3-|-1-1-1-1-1-1-1-1-|-3-3-3-3-3-3-3-3--|
|-8-8-8-8-8-8-8-8-|-3-3-3-3-3-3-3-3-|-1-1-1-1-1-1-1-1-|-2-2-2-2-2-2-2-2--|

|-----------------|-----------------|
|-----------------|-----------------|
|-----------------|-----------------|
|-3-3-3-3-3-3-3-3-|---(DRUM FILL)---|
|-3-3-3-3-3-3-3-3-|-----------------|
|-3-3-3-3-3-3-3-3-|-----------------|


Chorus X2

|----------------|----------------|-----------------|-----------------|
|----------------|----------------|-----------------|-----------------|
|----------------|----------------|-----------------|-----------------|
|-0--0--0-0-0-1--|-(1)-1--1-1-1-1-|-7-7-7-7-7-7-7-7-|-8-8-8-8-8-8-8-8-|
|-0--0--0-0-0-1--|-(1)-1--1-1-1-1-|-7-7-7-7-7-7-7-7-|-8-8-8-8-8-8-8-8-|
|-0--0--0-0-0-1--|-(1)-1--1-1-1-1-|-7-7-7-7-7-7-7-7-|-8-8-8-8-8-8-8-8-|
|
|----------------|----------------|-----------------|-----------------|
|----------------|----------------|-----------------|-----------------|
|-7--7--9/101012-|(12)-12-1212-12-|-6---6----6/9--9-|-7--7---7-7-7-7--|
|----------------|----------------|-----------------|-----------------|
|-5--5--7/8-8-10-|(10)-10-1010-10-|-4---4----4/7--7-|-5--5---5-5-5-5--|
|----------------|----------------|-----------------|-----------------|

Both Guitars (Palm Mute Bottom String)
|----------------|----------------|----------------|----------------|
|----------------|----------------|----------------|----------------|
|----------------|----------------|----------------|----------------|
|-----8--8-------|-----7--7-------|-----8--8-------|-----7--7-------|
|----------------|----------------|----------------|----------------|
|-5-5---5--5-5-5-|-4-4---4--4-4-4-|-5-5---5--5-5-5-|-4-4---4--4-4-4-|


Play:

Pre Verse
Verse
Pre Chorus
Chorus


Solo X2
|-17-13--------------------13-|-----------10-/18-15-----|
|------15----------------15---|-16~-----11---------16---|
|--------14------------14-----|------/10-------------15-|
|----------15--------15-------|-------------------------|
|------------17-16-17---------|-------------------------|
|-----------------------------|-------------------------|
|
|-----------------------------|-------------------------|
|-----------------------------|-------------------------|
|---7-----7-----7------7---7--|--8----------------------|
|---7-----7-----7------7---7--|--8----------------------|
|---5-----5-----5------5---5--|--6----------------------|
|-----------------------------|-------------------------|


|-17-13--------------------13-|-18~-------10-/18-15-----|
|------15----------------15---|---------11---------16---|
|--------14------------14-----|------/10-------------15-|
|----------15--------15-------|-------------------------|
|------------17-16-17---------|-------------------------|
|-----------------------------|-------------------------|
|
|-----------------------------|-------------------------|
|-----------------------------|-------------------------|
|-----------------------------|-------------------------|
|---7-----7-----7------7---7--|--8----------------------|
|---7-----7-----7------7---7--|--8----------------------|
|---7-----7-----7------7---7--|--8----------------------|

All notes tremelo picked in this section
Rhythm is the palm mute section in the chorus
|------------|------------|------------|-------------|
|---11-15-11-|---10-15-10-|---11-15-11-|---10-15-10--|
|-12---------|-11---------|-12---------|-11----------|
|------------|------------|------------|-------------|
|------------|------------|------------|-------------|
|------------|------------|------------|-------------|
|
|------------|------------|------------|-------------|
|---15-20-15-|---14-19-14-|---15-20-15-|---14-19-14--|
|-15---------|-14---------|-15---------|-14----------|
|------------|------------|------------|-------------|
|------------|------------|------------|-------------|
|------------|------------|------------|-------------|


Bridge (Palm Mute the first four notes of each bar) X2
|------------------|----------------|---------------|----------------|
|------------------|----------------|---------------|----------------|
|------------------|----------------|---------------|----------------|
|------------------|----------------|---------7-----|----------7-----|
|-0-0-0-0---7-5----|-0-0-0-0--7-5---|-0-0-0-0---5---|-0-0-0-0----5---|
|-0-0-0-0-------7~-|-0-0-0-0------7~|-0-0-0-0-----7~|-0-0-0-0------7~|

|------------------|----------------|----------------|----------------|
|------------------|----------------|----------------|----------------|
|------------------|----------------|----------------|----------------|
|-----------8------|----------8-----|--------10-8-7--|--------10-8-7--|
|-5-5-5-5-----5----|-5-5-5-5----5---|-8-8-8-8------8-|-8-8-8-8------8-|
|-5-5-5-5-------8~-|-5-5-5-5------8~|-8-8-8-8--------|-8-8-8-8--------|


Build up section
|----------------|-----------------|-----------------|-----------------|
|----------------|-----------------|-----------------|-----------------|
|7-7-7-7-7-7-7-7-|-7-7-7-7-7-7-7-7-|-2-2-2-2-2-2-2-2-|-2-2-2-2-2-2-2-2-|
|7-7-7-7-7-7-7-7-|-7-7-7-7-7-7-7-7-|-2-2-2-2-2-2-2-2-|-2-2-2-2-2-2-2-2-|
|5-5-5-5-5-5-5-5-|-5-5-5-5-5-5-5-5-|-0-0-0-0-0-0-0-0-|-0-0-0-0-0-0-0-0-|
|----------------|-----------------|-----------------|-----------------|

|----------------|-----------------|-----------------|-----------------|
|----------------|-----------------|-----------------|-----------------|
|3-3-3-3-3-3-3-3-|-3-3-3-3-3-3-3-3-|-5-5-5-5-5-5-5-5-|-5-5-5-5-5-5-5-5-|
|3-3-3-3-3-3-3-3-|-3-3-3-3-3-3-3-3-|-5-5-5-5-5-5-5-5-|-5-5-5-5-5-5-5-5-|
|1-1-1-1-1-1-1-1-|-1-1-1-1-1-1-1-1-|-3-3-3-3-3-3-3-3-|-3-3-3-3-3-3-3-3-|
|----------------|-----------------|-----------------|-----------------|


Zackys Lead bit
|--------------|--------------|--------------|-------------|
|--------------|--------------|--------------|-------------|
|--------------|----------/3--|-3--2---------|-------------|
|----2-3-2-----|----2--5------|-------3------|-------3--5--|
|-5---------5--|-3------------|---------5-3--|-1--5--------|
|--------------|--------------|--------------|-------------|
|
|--------------|--------------|--------------|-------------|
|--------------|--------------|--------------|-------------|
|7--7--7-7-7-7-|-5--5--5-5-5-5|--------------|3--3--3-3-3-3|
|7--7--7-7-7-7-|-5--5--5-5-5-5|-3--3--3-3-3-3|3--3--3-3-3-3|
|5--5--5-5-5-5-|-3--3--3-3-3-3|-3--3--3-3-3-3|1--1--1-1-1-1|
|--------------|--------------|-3--3--3-3-3-3|-------------|


|--------------|---------------|------------|
|-------3--/5--|---------------|-------5----|
|--------------|-5-------------|------------|
|----5---------|----5--3h5p3-2-|----7----7--|
|-2------------|---------------|-4----------|
|--------------|---------------|------------|
|
|--------------|---------------|------------|
|--------------|---------------|------------|
|--------------|-5--5--5-5-5-5-|------------|
|-5--5--5-5-5-5|-5--5--5-5-5-5-|7--7-7-7-7-7|
|-2--2--2-2-2-2|-3--3--3-3-3-3-|4--4-4-4-4-4|
|--------------|---------------|------------|


Dual type bit (Rhythm D5,C5,F5,G5,D5,A5,Bb5,C5 - One bar on each)
t=tremelo pick

|-17t--13t---------|-15t-------------|-17t-13t---------|-15t-----------|
|-----------15-----|-----13t---------|-----------------|-----15t-------|
|------------------|----------12-----|---------14t-----|----------15---|
|------------------|-----------------|-------------15t-|---------------|
|------------------|-----------------|-----------------|---------------|
|------------------|-----------------|-----------------|---------------|
|
|-13t--10t---------|-12t------15-----|-13t-10t---------|-12t-----------|
|-----------10-----|-----13t---------|-----------------|---------------|
|------------------|-----------------|---------10t-----|-----14t--12---|
|------------------|-----------------|-------------12t-|---------------|
|------------------|-----------------|-----------------|---------------|
|------------------|-----------------|-----------------|---------------|
|
|------------------|-----------------|-----------------|---------------|
|------------------|-----------------|-----------------|---------------|
|-7--7---7-7-7-7---|-5--5---5-5-5-5--|-----------------|---------------|
|-7--7---7-7-7-7---|-5--5---5-5-5-5--|-3--3---3-3-3-3--|-5--5--5-5-5-5-|
|-5--5---5-5-5-5---|-3--3---3-3-3-3--|-3--3---3-3-3-3--|-5--5--5-5-5-5-|
|------------------|-----------------|-3--3---3-3-3-3--|-5--5--5-5-5-5-|


|----------13t--13-|------------------|
|----------15t--15-|------------------|
|------------------|------------------|
|------------------|------------------|
|------------------|------------------|
|------------------|------------------|
|
|------------------|----------12t--12-|
|------------------|----------14t--14-|
|------------------|------------------|
|------------------|------------------|
|------------------|------------------|
|------------------|------------------|
|
|------------------|------------------|
|------------------|------------------|
|--7------7-7-7-7--|--9---------------|
|-----7---7-7-7-7--|-----7---7-7-7-7--|
|---------5-5-5-5--|---------7-7-7-7--|
|------------------|---------7-7-7-7--|


|------------------------------------------|
|------------------------------------------|
|-----------------------------12--12-14-15-|
|--------13--13-15-17-12-13-15--15---------|
|13-15-17--17------------------------------|
|------------------------------------------|
|
|------------------------------------------|
|------------------------------------------|
|-----------------------------15--15-17-19-|
|--------17--17-19-20-15-17-19--19---------|
|17-18-20--20------------------------------|
|------------------------------------------|
|
|------------------------------------------|
|------------------------------------------|
|--3----3----3----3----3----3----3----3----|
|--3----3----3----3----3----3----3----3----|
|--1----1----1----1----1----1----1----1----|
|------------------------------------------|


|----------------------------------13--13-15-17-|
|-/17-11-10-11-13-11-10-11-13-15-17--17---------|
|-----------------------------------------------|
|-----------------------------------------------|
|-----------------------------------------------|
|-----------------------------------------------|
|
|-----------------------------------------------|
|----------------------------------15--15-17-18-|
|-/17-12-10-12-14-12-10-12-14-15-17--17---------|
|-----------------------------------------------|
|-----------------------------------------------|
|-----------------------------------------------|
|
|-----------------------------------------------|
|-----------------------------------------------|
|----5----5----5----5----5----5----5----5-------|
|----5----5----5----5----5----5----5----5-------|
|----3----3----3----3----3----3----3----3-------|
|-----------------------------------------------|

                     dive bomb (push whammy down before you play note then bring it up 
you have played the harmonics)
|-------------------|------------------|
|--18b(20)----18----|------------------|
|-------------------|---(3)------------|
|-------------------|---(3)------------|
|-------------------|------------------|
|-------------------|------------------|
|
|-------------------|------------------|
|--15b(17)----15----|------------------|
|-------------------|---(3)------------|
|-------------------|---(3)------------|
|-------------------|------------------|
|-------------------|------------------|


Play:

Pre Verse
Verse
Pre Chorus
Chorus

Let open ring for 8 bars
Dive bomb on the 7th bar on 5 on G

Clean Part X3(I think that one guitar just plays the bass notes but ive tabbed it out all together
|---------5-------|---------6-------|---------6h8p6--|---13----12-10------|
|-----6-----6-----|-----8------8----|-----10-------10|--------------11-10-|
|---7---------7---|---8-----------8-|---7------------|--7-----------------|
|-----------------|-----------------|----------------|--------------------|
|-5-----5---------|-6-----6---------|----------------|--------------------|
|-----------------|-----------------|-7------7-------|-8------------------|

    Play these 2 bars Twice
|----------15-------|------10--10---------|
|------15----15-----|---10---10---10------|
|-12-15--15----15---|-11-------------11---|
|-------------------|---------------------|
|-------------------|---------------------|
|-------------------|---------------------|


Play Solo Rhythm X8 
----------------------------------------------------------------------------

                              2.Girl I Know
 |Intro|
e|---------------------------------------------------------------------|
B|---------------------------------------------------------------------|
G|---------------------------------------------------------------------|
D|--------0000-------0000------------------------------3---------------|
A|--------0000---3---0000--------------------------3-5---5^------------|
d|--------0000---3---0000---5^-----00-3-000----3-5---------------------|
PM:       ****   *   ****          ** * ***    * * * * * *
  
  |Intro| continued
e|---------------------------------------------------------------------|
B|---------------------------------------------------------------------|
G|---------------------------------------------------------------------|
D|--------0000-------0000----------------------------------------------|
A|--------0000---3---0000----------------------------------------------|
d|--------0000---3---0000---5^----------6b----3^-----------------------|  
PM:       ****   *   ****   

|Intro|x3
  
  
  |Verse Riff|
e|---------------------------------------------------------------------|
B|---------------------------------------------------------------------|
G|---------------------------------------------------------------------|
D|---------------------------------------------------0---3---5---6-----|
A|----00---0-00---0-00---0-00---0-00---0-00---0------0---3---5---6-----|
d|----00---0-00---0-00---0-00---0-00---0-00---0------0---3---5---6-----|
PM:   **   * **   * **   * **   * **   * **   *
e|---------------------------------------------------------------------|
B|---------------------------------------------------------------------|
G|---------------------------------------------------------------------|
D|----------------------------------------------------------10---6---5-|
A|----00---0-00---0-00---0-00---0-00---0-00---0-------------10---6---5-|
d|----00---0-00---0-00---0-00---0-00---0-00---0----10h12^---10---6---5-|
PM:   **   * **   * **   * **   * **   * **   *

  |Verse Riff B| Tremelo pick the 5's
e|---------------------------------------------------------------------|
B|---------------------------------------------------------------------|
G|---------------------------------------------------------------------|
D|------0-0--------0-0-0--------0-0--------0-0-------------------------|
A|------0-0--------0-0-0--------0-0--------0-0-------------------------|
d|------0-0---5^---0-0-0---5^---0-0---5^---0-0----12^------------------|

|Verse Riff|x1

  
  |Pre-Chorus Rhythm|
e|---------------------------------------------------------------------|
B|---------------------------------------------------------------------|
G|---------------------------------------------------------------------|
D|------------8----8----8-8~------------10----10----10-10~-------------|
A|------------8----8----8-8~------------10----10----10-10~-------------|
d|------------8----8----8-8~------------10----10----10-10~-------------|

  |Pre-Chorus Lead|
e|---------------------------------------------------------------------|
B|---------7-777-----10^-------------7-77-7-77-7-7^------10^-----------|
G|---------------------------------------------------------------------|
D|---------------------------------------------------------------------|
A|---------------------------------------------------------------------|
d|---------------------------------------------------------------------|
    Sweep pickin is recommmended 
e|-------------------------------------------------------------19b-(20)|
B|----------------------------------------------------17h19h22---------|
G|--------------------------------------------18h19h21-----------------|
D|----------17h19h20-19h17------------17h19h20-------------------------|
A|--17h19h20--------------20--17h19h20---------------------------------|
d|---------------------------------------------------------------------|

  |Chorus Rhythm|
e|---------------------------------------------------------------------|
B|---------------------------------------------------------------------|
G|---------------------------------------------------------------------|
D|----0000-------0000---------------------------8-8-8-8----10-10-10-10-|x2
A|----0000---3---0000---------------------------8-8-8-8----10-10-10-10-|
d|----0000---3---0000---5^/--------10-12^\------8-8-8-8----10-10-10-10-|
PM:   ****   *   ****                               
  
  |Chorus Lead| both guitars play starting at the 15
e|---------------------------------------------------------------------|
B|----------6------9^--------------------18b------------20b------------|
G|-----7777---7777----------------15--15---------17--17----------------|
D|----------------------------------15-------------17------------------|x2
A|---------------------------------------------------------------------|
d|---------------------------------------------------------------------|

  |Chorus Outro Syns part|
e|---------------------------------------------------------------------|
B|----------17b----20b----22b----21b----19b----15b----17b^-------------|
G|---------------------------------------------------------------------|
D|---------------------------------------------------------------------|
A|---------------------------------------------------------------------|
d|---------------------------------------------------------------------|

  |Chorus Outro Zackys Part|
e|---------------------------------------------------------------------|
B|----------17b----20b----22b----21b----19b----------------------------|
G|---------------------------------------------------------------------|
D|---------------------------------------------15b----17b^-------------|
A|---------------------------------------------------------------------|
d|---------------------------------------------------------------------|

  |Chorus Outro Rhythm|
e|---------------------------------------------------------------------|
B|---------------------------------------------------------------------|
G|---------------------------------------------------------------------|
D|--------11-11-11-11------12-12\----7-7----8-8-8-8----10-10-10-10-----|
A|--------11-11-11-11------12-12\----7-7----8-8-8-8----10-10-10-10-----|
d|--------11-11-11-11------12-12\----7-7----8-8-8-8----10-10-10-10-----|

  |Chorus Outro Interlude| use verse riff B for the rhythm
e|---------------------------------------------------------------------|
B|---------------------------------------------------------------------|
G|---------------------------------------------------------------------|
D|------------------15-17-15---------------------15-17-15--------------|
A|---------15-17-18----------18---------15-17-18----------18-----------|
d|------18---------------------------18--------------------------------|
PM:     *  *  *  *  *  *  *  *        * *  *  *  *  *  *  *
e|---------------------------------------------------------------------|
B|---------------------------------------------------------------------|
G|------------------------------17-14-12-14--19b-----------------------|
D|---------------------15-17-18----------------------------------------|
A|---------15-17-18-18-------------------------------------------------|
d|------18-------------------------------------------------------------|
PM:     *  *  *

THEN...

|Verse|x1

|Pre-Chorus|x1

  |Pre-Chorus Interlude| 2nd time  *this is a bit different then the first*
e|-------------------------------------------------------------19b-(20)|
B|----------------------------------------------------17h19h22---------|
G|--------------------------------------------18h19h21-----------------|
D|-20h19h17-----20h19h17--------------17h19h20-------------------------|
A|----------20-----------20---17h19h20---------------------------------|
d|---------------------------------------------------------------------|

|Chorus|x1 *Dont play the interlude!*

  |Pre-Solo Rhythm|
e|---------------------------------------------------------------------|
B|---------------------------------------------------------------------|
G|---------------------------------------------------------------------|
D|------0-0--------0-0-0--------0-0--------0-0-------------------------|
A|------0-0--------0-0-0--------0-0--------0-0-------------------------|
d|------0-0---5^---0-0-0---5^---0-0---5^---0-0----12^------------------|

  |Pre-Solo Lead|
e|----------------------------------19bp------------(19)---------------|
B|--------------19bp---19b-19b-----------------------------------------|
G|---------------------------------------------------------------------|
D|---------------------------------------------------------------------|
A|---------------------------------------------------------------------|
d|---------------------------------------------------------------------|

  |Solo| play verse riff for rhythm
e|-----------------------------------------------------17bp-----15-17b-|
B|------------------------------------------------19-------------------|
G|------------------------19b-17b---19191919----19---------------------|
D|-----------15h18h15h18----------------------19-----------------------|
A|--17171717-----------------------------------------------------------|
d|---------------------------------------------------------------------|

e|---------------------------------------------------------------------|
B|---------------------------------------------------------------------|
G|--------19b------17h16h19--------------------------------------------|
D|---------------------------------19b------17-15-14-12bp--------------|
A|---------------------------------------------------------------------|
d|---------------------------------------------------------------------|

e|------------------------------------------------------17/19\17-------|
B|--------------------------------------------------19-----------------|
G|---------------------------19b-17\--/19191919---19-------------------|
D|---------------15h18h15h18--------------------19---------------------|
A|------17171717-------------------------------------------------------|
d|---------------------------------------------------------------------|

e|----------------19bp--------------17bp----------------------------------|
B|-----------------------------------------------20b------13------13------|
G|--19191919191919----17171717171717----15151515-----14-15---14-15----12b-|
D|------------------------------------------------------------------------|
A|------------------------------------------------------------------------|
d|------------------------------------------------------------------------|

e|------------------------------------------------------------------------|
B|------------------------------------------------------------------------|
G|------------19-19-17----17-------17-17-17-------------------------------|
D|---------------------19----19-18----------19-18-19-15-------------------|
A|------------------------------------------------------17----------------|
d|------------------------------------------------------------------------|

e|---------------------------------------------------------------------|
B|---------------------------------------------------------------------|
G|---------------------------------------------------------------------|
D|----------18-18-17-15----15----------------15-15h17h15---------------|
A|----------------------17----17-------15-17-------------17------------|
d|---------------------------------18^---------------------------------|

e|---------------------------------------------------------------------|
B|---------------------------------------------------------------------|
G|--19-19-17----17-------17-17-17--------------------------------17b---|
D|-----------19----19-18----------19-18-19-15-----------------15----19-|
A|--------------------------------------------17---------15-17---------|
d|-------------------------------------------------18-18---------------|

e|-----------------19bp------------------------------------------------|
B|-----------19-20------20---------------------------------------------|
G|---------19----------------------------------------------------------|
D|----19-19------------------------------------------------------------|
A|---------------------------------------------------------------------|
d|---------------------------------------------------------------------|

     the two guitars play this
e|------------------------------------------------------------------------|
B|------------------------------------------------------------------------|
G|------------19-19-17----17-------17-17-17-------------------------------|
D|---------------------19----19-18----------19-18-19-15-------------------|
A|------------------------------------------------------17----------------|
d|------------------------------------------------------------------------|

e|---------------------------------------------------------------------|
B|---------------------------------------------------------------------|
G|---------------------------------------------------------------------|
D|----------18-18-17-15----15----------------15-15h17h15---------------|
A|----------------------17----17-------15-17-------------17------------|
d|---------------------------------18^---------------------------------|

e|---------------------------------------------------------------------|
B|---------------------------------------------------------------------|
G|--19-19-17----17-------17-17-17--------------------------------17b---|
D|-----------19----19-18----------19-18-19-15-----------------15----19-|
A|--------------------------------------------17---------15-17---------|
d|-------------------------------------------------18-18---------------|

e|-----------------19bp------------------------------------------------|
B|-----------19-20------20---------------------------------------------|
G|---------19----------------------------------------------------------|
D|----19-19------------------------------------------------------------|
A|---------------------------------------------------------------------|
d|---------------------------------------------------------------------|

  |Solo Outro| both guitars
e|---------------------------------------------------------------------|
B|---------------------------------------------------------------------|
G|---------15---14----12-14-------12-14-17-17---15-14-12b--------------|
D|---------------------------------------------------------------------|
A|---------------------------------------------------------------------|
d|---------------------------------------------------------------------|
 
  |Solo Outro Rhythm| 
e|---------------------------------------------------------------------|
B|---------------------------------------------------------------------|
G|---------------------------------------------------------------------|
D|----8----8---8-8~-------10----10---10-10-----10-10-10-10-10-10-10----|
A|----8----8---8-8~-------10----10---10-10-----10-10-10-10-10-10-10----|
d|----8----8---8-8~-------10----10---10-10-----10-10-10-10-10-10-10----|

  |Bridge Rhythm|
e|---------------------------------------------------------------------|
B|---------------------------------------------------------------------|
G|---------------------------------------------------------------------|
D|-0-0-0-0-0-0-0-0-0-0-0-0-0-0-0--7-7-7-7-7--8-8-8-8-8-8--10-10-10-10-|
A|-0-0-0-0-0-0-0-0-0-0-0-0-0-0-0--7-7-7-7-7--8-8-8-8-8-8--10-10-10-10-|
d|-0-0-0-0-0-0-0-0-0-0-0-0-0-0-0--7-7-7-7-7--8-8-8-8-8-8--10-10-10-10-|
PM:* * * * * * * * * * * * * * *  * * * * *  * * * * * *  *  *  *  *  
  |Bridge Syns Part|
e|----------------------------------------16\13/14b--------------------|
B|-------------8-11-11-10\-----------9-12------------------------------|
G|---------10--------------------10------------------------------------|
D|---------------------------------------------------------------------|
A|---------------------------------------------------------------------|
d|---------------------------------------------------------------------|

e|-----------19\----17/19\16---13/16\13---10/13------------------------|
B|----------------------------------------------10---------------------|
G|---------------------------------------------------------------------|
D|---------------------------------------------------------------------|
A|---------------------------------------------------------------------|
d|---------------------------------------------------------------------|

e|---------------------------------------------------------------------|
B|---------------------------------------------------------------------|
G|----------------10^\/12\/14\-----13^\15/17---------------------------|
D|---------------------------------------------------------------------|
A|---------------------------------------------------------------------|
d|---------------------------------------------------------------------|
  
  |Bridge Zackys Part|
e|---------------------------------------11-16\13/14b------------------|
B|--------------------------------10---12------------------------------|
G|----------12-15-15-14\-----------------------------------------------|
D|------15-------------------------------------------------------------|
A|---------------------------------------------------------------------|
d|---------------------------------------------------------------------|

e|-----------19\----17/19\16---13/16\13---10/13------------------------|
B|----------------------------------------------10---------------------|
G|---------------------------------------------------------------------|
D|---------------------------------------------------------------------|
A|---------------------------------------------------------------------|
d|---------------------------------------------------------------------|

e|---------------------------------------------------------------------|
B|---------------------------------------------------------------------|
G|----------------10^\/12\/14\-----13^\15/17---------------------------|
D|---------------------------------------------------------------------|
A|---------------------------------------------------------------------|
d|---------------------------------------------------------------------|
  
  |Interlude Rhythm|
e|--------------------------------------------------------|------------|
B|--------------------------------------------------------|------------|
G|--------------------------------------------------------|------------|
D|-----0-0--------0-0-0--------0-0--------0-0-0-----------|------------|x2
A|-----0-0--------0-0-0--------0-0--------0-0-0-----------|------------|
d|-----0-0---5^---0-0-0---5^---0-0---5^---0-0-0---5^------|-----12^----|

  |Interlude Lead| 
e|----------------------------19bp---(19)------------------------------|
B|---------------------------------------------------------------------|
G|---------------------------------------------------------------------|
D|---------------------------------------------------------------------|
A|---------------------------------------------------------------------|
d|---------------------------------------------------------------------|

|Chorus|x1

  |Outro|
e|---------------------------------------------------------------------|
B|---------------------------------------------------------------------|
G|---------------------------------------------------------------------|
D|---------------------------------------------------0---3---5---6-----|
A|----00---0-00---0-00---0-00---0-00---0-00---0------0---3---5---6-----|
d|----00---0-00---0-00---0-00---0-00---0-00---0------0---3---5---6-----|
PM:   **   * **   * **   * **   * **   * **   *
 
   *If you listen closely you'll hear the little grace noted in there*
e|-----------------------------------------------------------------------|
B|-----------------------------------------------------------------------|
G|-----------------------------------------------------------------------|
D|------------------------------------------------------------10---6---5-|
A|----00---0-00---0-00---0-00--0--0-00---0-00---0-------------10---6---5-|
d|----00---0-00---0-00---0-00--0--0-00---0-00---0----10h12^---10---6---5-|
PM:   **   * **   * **   * **  *  * **   * **   *

e|------------------|
B|------------------|
G|------------------|
D|-------0-0--------|
A|-------0-0--------|
d|-------0-0--------|
PM:      * *

----------------------------------------------------------------------------

                              3.Crossroads
Riff A     {Tremolo Pick the 7's) (The 7's are Natural Harmonics)
e|----------------------------------------------------------------|
B|----------------------------------------------------------------|
G|----------------------------------------------------------------|
D|-5h6--0-0-0-0-0-0-0---------------777777777777------------------| x4
A|-5h6--0-0-0-0-0-0-0---------------------------------------------|
D|-5h6--0-0-0-0-0-0-0---------------------------------------------|
 PM:    *   *   *   *


This part is played when Riff A is bein played for the third and fourth time. Use Pinch
Harmonics.


e|----------------------------------------------------------------|
B|----------------(16)/---------------(18)\-(really Squeel)-------|
G|----------------------------------------------------------------|
D|----------------------------------------------------------------|
A|----------------------------------------------------------------|
D|----------------------------------------------------------------|


  |Riff B|
e|----------------------------------------------------------------|
B|----------------------------------------------------------------|
G|----------------------------------------------------------------|
D|--5h6--0-0-0-0-0-0-0----------------777777777777----------------| x4
A|--5h6--0-0-0-0-0-0-0--------------------------------------------|
E|--5h6--0-0-0-0-0-0-0--------------------------------------------|
  PM:    *   *   *   *


e|----------------------------------------------------------------|
B|----------------------------------------------------------------|
G|----------------------------------------------------------------|
D|----8----7----5----3--------------------------------------------|
A|----8----7----5----3--------------------------------------------|
D|----8----7----5----3--------------------------------------------|
PM:        *    *    *

 Repeat |Riff A| x4 for the verse

  |Riff C| (This riff is just like Riff A except you play the opens with downstrokes/sweeping)
e|----------------------------------------------------------------|
B|----------------------------------------------------------------|
G|----------------------------------------------------------------|
D|--5h6----0-0-0-0-0-0-0-0-0-0-----------77777777777--------------|x4
A|--5h6----0-0-0-0-0-0-0-0-0-0------------------------------------|
E|--5h6----0-0-0-0-0-0-0-0-0-0------------------------------------|
  PM:      * * * * * * * * * *


  |Pre-Chorus Syns Part|
e|----------------------------------------------------------------|
B|----------------------------------------------------------------|
G|----14h12h14---10-12-9-10-7-----------14h12h14---10-12-9-10^----|
D|----------------------------------------------------------------|
A|----------------------------------------------------------------|
D|----------------------------------------------------------------|

e|-----------------------------------------------------------(14)-|
B|---------------------------------------------------12h13h15-----|
G|----14h12h14---10-12-9-10-7-----------------12h14h15------------|
D|--------------------------------------12h14h15------------------|
A|----------------------------------------------------------------|
D|----------------------------------------------------------------|


  |Pre-Chorus Zackys Part|
e|----------------------------------------------------------------|
B|----------------------------------------------------------------|
G|----------------------------------------------------------------|
D|----15h13h15---12-14-10-12-----------15h13h15---12-14-10-12^----|
A|---------------------------13-----------------------------------|
D|----------------------------------------------------------------|

e|----------------------------------------------------------------|
B|-----------------------------------------------------------(15)-|
G|---------------------------------------------------13h15h16-----|
D|----15h13h15---12-14-10-12------------------13h15h16------------|
A|---------------------------13--------12h14h15-------------------|
D|----------------------------------------------------------------|


  |Pre-Chorus Rythym|
e|----------------------------------------------------------------|
B|----------------------------------------------------------------|
G|----3~--------2~----------10------9-------10~-------------------|
D|----1~--------2~----------8-------7-------8~--------------------|
A|----1~--------0~----------8-------7-------8~--------------------|
D|----------------------------------------------------------------|


  |Chorus|  *16th notes so strum fast, more than I wrote
e-----------------------------------------------------------------|
B-----------------------------------------------------------------|
G-----------------------------------------------------------------|
D---------1212----1212----1212---------101010121212---------------|
A-10101010----8888----8888----12121212--------------10101010------|
D-----------------------------------------------------------------|
  "If I was perfect..."      "I walk through the center..."

  |Chorus| (Continued)
e-----------------------------------------------------------------|
B-----------------------------------------------------------------|
G-----------------------------------------------------------------|
D---------1212----1212----1212--------1010-1212-1515-1212-1515----|
A-10101010----8888----8888----12121212----------------------------|
D-----------------------------------------------------------------|
  "Either roads plausable..."        "I realize its difficult..."


Then we go back to...

|Riff A|x1

|Riff B|x4

|Riff C|x4

|Pre Chorus|x1

|Entire Chorus|x1

   |Bridge|
e|----------------------------------------------------------------|
B|----------------------------------------------------------------|
G|----------------------------------------------------------------|
D|----0--0--7--5--3--2--3---000-000-------------------------------|x2
A|----0--0--7--5--3--2--3---000-000-------------------------------|
D|----0--0--7--5--3--2--3---000-000-------------------------------|
PM:   *  *                  *** ***

  |Bridge Interlude Syns Part|
e|-------------------------------------------------------------------|
B|---------6-------------8---------------10------------------13------|
G|-------7--7----------9--9------------11--11--------------14-14-----|
D|------7----7--------9----9---------11------11----------14-----14---|
A|---5-8------8---7-10------10---9-12----------12---12-15---------15-
D|-------------------------------------------------------------------| 
 
   
  |Bridge Interlude Zackys Part|
e|----------------------------------------------------------------|
B|-------1------------3------------5----------------8-------------|
G|-----2--2---------4--4---------6--6-------------9--9----------- |
D|----3----3-------5----5-------7----7----------10-----10---------|
A|-1-3------3---3-5------5---5-7------7----8--10---------10-------|
D|----------------------------------------------------------------| 
 


|Bridge|x1

|Bridge Interlude|x1

  |Riff D|
e|----------------------------------------------------------------|
B|----------------------------------------------------------------|
G|----------------------------------------------------------------|
D|----------1-1-1-1-1-1-1-1/-------5-5-5-5-5-5-5-5----------------|x3
A|----------1-1-1-1-1-1-1-1/-------5-5-5-5-5-5-5-5----------------|
D|----------1-1-1-1-1-1-1-1/-------5-5-5-5-5-5-5-5----------------|


  |Interlude A|
e|------------------------------------------------------------------------|
B|------------------------------------------------------------------------|
G|------------------------------------------------------------------------|
D|------10--------10----------12--------12----------14---------12-12\10/12|
A|----8----8----8----8-----10----10---10---10----12---12----12------------|
D|--8---------8---------10----------10--------12---------12---------------|

  |Interlude A| (Continued)
e|---------------------------------------------------------------------------|
B|---------------------------------------------------------------------------|
G|---------------------------------------------------------------------------|
D|------10---------10----------12----------12----------14----------12b/15b---|
A|----8----8-----8----8-----10----10----10----10----12----12-----12----------|
D|---8--------8----------10----------10----------12-----------12-------------|


  |Interlude B|
e|--------------------------------------------------------------------------|
B|--------------------------------------------------------------------------|
G|--------------------------------------------------------------------------|
D|--------10----10--10----10--10^--------12----12----12------12---12^-------|
A|------8-----8---------8-------------10-----10-----------10----------------|
D|-----8-----8----8----8----8-------10------10----10----10-----10-----------|


  |Interlude End Riff| play this at the very end of the interlude
e|----------------------------------------------------------------|
B|----------------------------------------------------------------|
G|----------------------------------------------------------------|
D|-------------8~-------9~-------10~-------11~--------- ----------|
A|-------------8~-------9~-------10~-------11~--------------------|
D|-------------8~-------9~-------10~-------11~--------------------|

|Riff A| x4


  |Solo| Riff A is played for the rhythm
e|----------------------------------------------------------------|
B|----------------15--18--18^-------------------------------------|
G|----------13-16-------------------------------------------------|
D|---12-15--------------------------------------------------------|
A|----------------------------------------------------------------|
D|----------------------------------------------------------------|


e|----------------------------------------------------------------|
B|-----------------15b-17-----------------------------------------|
G|----------13-16---------13^-------------------------------------|
D|---12-15--------------------------------------------------------|
A|----------------------------------------------------------------|
D|----------------------------------------------------------------|

e|----------------------17b---------------------------------------|
B|----------------15-18-------------------------------------------|
G|----------13-16-------------------------------------------------|
D|---12-15--------------------------------------------------------|
A|----------------------------------------------------------------|
D|----------------------------------------------------------------|

e|----------------------------------------------17b------------------|
B|-----------------15h18h15--18----15h18h15---15---------------------|
G|----------13-16----------18---------------18-----------------------|
D|---12-15-----------------------------------------------------------|
A|-------------------------------------------------------------------|
D|-------------------------------------------------------------------|

e|------------17-----------15h17h15h17h15-------------------------|
B|---15-18-15----18-15--------------------18-15-------------------|
G|----------------------------------------------15-14b-14b--------|
D|----------------------------------------------------------------|
A|----------------------------------------------------------------|
D|----------------------------------------------------------------|

e|------------17-----------------------------15-18b---------------|
B|---15-18-15----18-18--------------15-17-18----------------------|
G|-------------------------14-15-18-------------------------------|
D|----------------------------------------------------------------|
A|----------------------------------------------------------------|
D|----------------------------------------------------------------|

e|------------17----------------15h17h18h17h18-//22b--------------|
B|---15-18-15----18-15----15-18-----------------------------------|
G|----------------------------------------------------------------|
D|----------------------------------------------------------------|
A|----------------------------------------------------------------|
D|----------------------------------------------------------------|

e|------------17----------19bp-19bp-19bp-------------------------------|
B|---15-18-15----18-18-------------------------------------------------|
G|---------------------------------------------------------------------|
D|---------------------------------------------------------------------|
A|---------------------------------------------------------------------|
D|---------------------------------------------------------------------|

e|--19-18-17-18-17-16-15-16-15-14-15-16-17b-------(21)------------|
B|----------------------------------------------------------------|
G|----------------------------------------------------------------|
D|----------------------------------------------------------------|
A|----------------------------------------------------------------|
D|----------------------------------------------------------------|

|Chorus|x1

|Riff A|x4

  |Outro|
e|----------------------------------------------------------------|
B|----------------------------------------------------------------|
G|----------------------------------------------------------------|
D|-----8~------7-----5-----3---------000--000--00000--------------|
A|-----8~------7-----5-----3---------000--000--00000--------------|
D|-----8~------7-----5-----3---------000--000--00000--------------|
PM:            *     *     *         ***  ***  *****

----------------------------------------------------------------------------

                          4.Flash Of The Blade
                           (Iron Maiden cover)
Standard Tuning
  							             2x
e----------------|---------------|---------------|--------------------]
b+---------------|---------------|---------------|-------------------+]
g--^-^-^-^-^-^-^-|-^-^-^-^-^-^-^-|-^-^-^-^-^-^-^-|--^-^--^-^--^-^--^--]
d+7-0-7-0-7-0-7-0|7-0-7-0-7-0-7-0|8-0-8-0-8-0-8-0|10-0-10-0-10-0-10-0+]
a----------------|---------------|---------------|--------------------]
e----------------|---------------|---------------|--------------------]

Riff A					
   
e----------------|---------------|---------------|--------------------]
b+---------------|---------------|---------------|--------------------]
g--^-^-^-^-^-^-^-|-^-^-^-^-^-^-^-|-^-^-^-^-^-^-^-|--^-^--^-^--^-^--^--]
d+7-0-7-0-7-0-7-0|7-0-7-0-7-0-7-0|8-0-8-0-8-0-8-0|10-0-10-0-10-0-10-0-]
a----------------|---------------|---------------|--------------------]
e----------------|---------------|---------------|--------------------]
								  2x

[----------------|---------------|---------------|--------------------]
[----------------|---------------|---------------|-------------------+]
[--^-^-^-^-^-^-^-|-^-^-^-^-^-^-^-|-^-^-^-^-^-^-^-|--^-^--^-^--^-^--^--]
[-7-0-7-0-7-0-7-0|7-0-7-0-7-0-7-0|8-0-8-0-8-0-8-0|-5-0--5-0--5-0--5-0+]
[----------------|---------------|---------------|--------------------] 
[----------------|---------------|---------------|--------------------]


 
 p.m. . . . . . . . . . . . . . . . . . . . . . .
[----------------|---------------|---------------]
[+---------------|---------------|---------------]
[----------------|---------------|---------------]
[+2-2-2-2-2-2-2-2|2-2-2-2-2-2-2-2|5-5-5-5-5-5-5-5]
[-0-0-0-0-0-0-0-0|0-0-0-0-0-0-0-0|3-3-3-3-3-3-3-3]
[----------------|---------------|---------------]

  
 p.m. . . . . . . . . . . . . . . . . . . . . . .
[-----------------|----------------|----------------]
[+----------------|----------------|----------------]
[-----------------|----------------|----------------]
[+4-4-4-4-4-4-4-4-|3-3-3-3-3-3-3-3-|3-3-3-3-3-3-3-3-]
[-2-2-2-2-2-2-2-2-|1-1-1-1-1-1-1-1-|1-1-1-1-1-1-1-1-]
[-----------------|----------------|----------------]

	      p.m.. . . . . . . . . . . . . 
[-----------------|----------------|----------------]
[-----------------|----------------|----------------]
[---------------2-|(2)-------------|----------------]
[----------^----2-|(2)2-2-2-2-2-2-2|2-2-2-2-2-2-2-2-]
[--^------3-2---0-|(0)0-0-0-0-0-0-0|0-0-0-0-0-0-0-0-]
[-1-0-3-0-----3---|----------------|----------------]

 
 p.m. . . . . . .  . . . . . . . .  . . . . . . . .
[-----------------|----------------|----------------]
[-----------------|----------------|----------------]
[-----------------|----------------|----------------]
[-2-2-2-2-2-2-2-2-|5-5-5-5-5-5-5-5-|4-4-4-4-4-4-4-4-]
[-0-0-0-0-0-0-0-0-|3-3-3-3-3-3-3-3-|2-2-2-2-2-2-2-2-]
[-----------------|----------------|----------------]

 
 p.m. . . . . . .  . . . . . . . .
[-----------------|----------------|----------------]
[-----------------|----------------|----------------]
[-----------------|----------------|--------------2-]
[-3-3-3-3-3-3-3-3-|3-3-3-3-3-3-3-3-|---------^----2-]
[-1-1-1-1-1-1-1-1-|1-1-1-1-1-1-1-1-|-----^--3-0---0-]
[-----------------|----------------|1-0-3-0-----3---]

                  
[-----------------||---------------|----------------]
[-----------------||---------------|----------------]
[-(2)-------------||--7------------|--7---6-----7---]
[-(2)-------------||--7------------|--7---6-----7---]
[-(0)-------------||--5------------|--5---4-----5---]
[-----------------||---------------|----------------]

    
[----------------|---------------|----------------|-------------------]
[----------------|---------------|----------------|-------------------]
[--9-------------|--9---8----9---|--5-------------|--5----4-----5-----]
[--9-------------|--9---8----9---|--5-------------|--5----4-----5-----]
[--7-------------|--7---6----7---|--3-------------|--3----2-----3-----]  
[----------------|---------------|----------------|-------------------]



[----------------|--------0------|----------------|-------------------]
[----------------|--------0------|----------------|-------------------]
[----------------|---------------|---7----7-------|--7----6-----7-----]
[----5-----------|---2-----------|---7----7-------|--7----6-----7-----]
[----5-----5-----|---2-----------|---5----5-------|--5----4-----5-----]
[----3-----2-----|---0-----------|----------------|-------------------]

[----------------|---------------|----------------|-------------------]
[----------------|---------------|----------------|-------------------]
[--9-------------|--9---8----9---|--5-------------|--5----4-----5-----]
[--9-------------|--9---8----9---|--5-------------|--5----4-----5-----]
[--7-------------|--7---6----7---|--3-------------|--3----2-----3-----]
[----------------|---------------|----------------|-------------------]
                     
[----------------|--------0------||---------------|------------------]
[----------------|--------0------||---------------|------------------]
[----------------|---------------||---------------|------------------]
[--5-------------|---2-----------||---------------|------------------]
[--5------5------|---2-----------||---------------|------------------]
[--3------2------|---0-----------||---------------|------------------]


[----------------|---------------|---------------|--------------------]
[+---------------|---------------|---------------|--------------------]
[--^-^-^-^-^-^-^-|-^-^-^-^-^-^-^-|-^-^-^-^-^-^-^-|--^-^--^-^--^-^--^--]
[+7-0-7-0-7-0-7-0|7-0-7-0-7-0-7-0|8-0-8-0-8-0-8-0|10-0-10-0-10-0-10-0-]
[----------------|---------------|---------------|--------------------]
[----------------|---------------|---------------|--------------------]

                                                                    2X
   
[----------------|---------------|---------------|--------------------]
[----------------|---------------|---------------|-------------------+]
[--^-^-^-^-^-^-^-|-^-^-^-^-^-^-^-|-^-^-^-^-^-^-^-|--^-^--^-^--^-^--^--]
[-7-0-7-0-7-0-7-0|7-0-7-0-7-0-7-0|8-0-8-0-8-0-8-0|-5-0--5-0--5-0--5-0+]
[----------------|---------------|---------------|--------------------] 
[----------------|---------------|---------------|--------------------]

interlude a:

{[---------------------|---------------------|---------------------]
{[---------------------|---------------------|--5--5--5--5---------]
{[---------------------|---------------------|--------------7--5---]
{[---7~~---------------|---5~~---------------|---------------------]
{[---------------------|---------------------|---------------------] 
{[---------------------|---------------------|---------------------]
{
{[--5-0-5-7--8--7--5-0-|--5-0-5-7--8--7--5-0-|7-0--7--8--10-8--7--0]
{[---------------------|---------------------|---------------------]
{[---------------------|---------------------|---------------------]
{[---------------------|---------------------|---------------------]
{[---------------------|---------------------|---------------------] 
{[---------------------|---------------------|---------------------]
{
{[--8-0-8-10-12-10-8-0-|--8-0-8-10-12-10-8-0-|10-0-10-12-13-12-10-0]
{[---------------------|---------------------|---------------------]
{[---------------------|---------------------|---------------------]
{[---------------------|---------------------|---------------------]
{[---------------------|---------------------|---------------------] 
{[---------------------|---------------------|---------------------]

      
{[------------------/--|---------------------|---------------------]
{[-----------------/---|---------------------|---------------------]
{[---4~~---------(4)/--|---------------------|---------------------]
{[---------------------|---7~~---------------|---5~~---------------] 
{[---------------------|---------------------|---------------------]
{[---------------------|---------------------|---------------------]
{
{[10-8--7--8--8--7--5-0|--5-0-5-7--8--7--5-0-|--5-0-5-7--8--7--5-0-]
{[---------------------|---------------------|---------------------]
{[---------------------|---------------------|---------------------]
{[---------------------|---------------------|---------------------] 
{[---------------------|---------------------|---------------------]
{[---------------------|---------------------|---------------------]
{
{[13-12-10-12-12-10-8-0|--8-0-8-10-12-10-8-0-|10-0-10-12-13-12-10-0]
{[---------------------|---------------------|---------------------]
{[---------------------|---------------------|---------------------]
{[---------------------|---------------------|---------------------] 
{[---------------------|---------------------|---------------------]
{[---------------------|---------------------|---------------------]

    
{[---------------------|---------------------|
{[---------------------|---------------------|
{[--5b-5b-5b-5b--------|-----------/--------9|
{[--------------7--5---|--6~~----(6)/--x/10--|
{[---------------------|---------------------|
{[---------------------|---------------------|
{
{[7-0--7--8--10-8--7--0|10-8--7--8--8--7--5-0|
{[---------------------|---------------------|
{[---------------------|---------------------|
{[---------------------|---------------------|
{[---------------------|---------------------|
{[---------------------|---------------------|
{
{[10-0-10-12-13-12-10-0|13-12-10-12-12-10-8-0|
{[---------------------|---------------------|
{[---------------------|---------------------|
{[---------------------|---------------------|
{[---------------------|---------------------|
{[---------------------|---------------------|

       
{[---------------------|---------------------|-12b-12b-12b-12------]
{[---10~~--------------|--13~~----------13---|--------------15--13-]
{[----------------14---|------------14-------|---------------------]
{[----------x/14-------|---------------------|---------------------]
{[---------------------|---------------------|---------------------] 
{[---------------------|---------------------|---------------------]
{
{[--5-0-5-7--8--7--5-0-|--5-0-5-7--8--7--5-0-|7-0--7--8--10-8--7--0]
{[---------------------|---------------------|---------------------]
{[---------------------|---------------------|---------------------]
{[---------------------|---------------------|---------------------]
{[---------------------|---------------------|---------------------] 
{[---------------------|---------------------|---------------------]
{
{[--8-0-8-10-12-10-8-0-|--8-0-8-10-12-10-8-0-|10-0-10-12-13-12-10-0]
{[---------------------|---------------------|---------------------]
{[---------------------|---------------------|---------------------]
{[---------------------|---------------------|---------------------]
{[---------------------|---------------------|---------------------] 
{[---------------------|---------------------|---------------------]
 
      
{[---------------------|---------------------|---------------------]
{[---------------------|---10----------------|--13~~----------13---]
{[---13\------------9--|----------------14---|------------14-------]
{[------\-----x/10-----|----------x/14-------|---------------------] 
{[-------\-------------|---------------------|---------------------]
{[---------------------|---------------------|---------------------]
{
{[10-8--7--8--8--7--5-0|--5-0-5-7--8--7--5-0-|--5-0-5-7--8
Добавлено: 22.04.2012
Другие материалы по этой песне:
  • Аккорды и текст

Страница создана 22.04.2012
http://primanota.ru/avenged-sevenfold/diamonds-in-the-rough-album-chords.htm
Привет, Гость.
Предлагаем пройти революционный курс по гитаре.
Подарок от PrimaNota.Ru, забирай!