PrimaNota.ru - самый крупный в мире бесплатный архив песенных текстов, аккордов, табулатур и нот


Avenged Sevenfold - Breaking Thier Hold - таба, видео

Регистрация Запомнить меня
Войти через:  Facebook Google Twitter Vk Yandex Mail.ru

Avenged Sevenfold - Breaking Thier Hold - таба, видео

Печатать
Просмотров: 152
Song: Breaking Thier Hold
Band: Avenged Sevenfold
Album: Sounding The Seventh Trumpet
Tabber: Carl Russell

There are 2 guitars in this song, firstly, heres guitar 1...

e----|---------|-----------------------------|-----------------------------|
b----|---------|-----------------------------|-----------------------------|
g----|---------|-----------------------------|-----------------------------|
d-0--|-0-pick--|-5-5--5-3-3--3-1-1--1-1-1--1-|-0-0--0-0-0--0-0-0--0-0-0--0-|
a-0--|-0-slide-|-5-5--5-3-3--3-1-1--1-1-1--1-|-0-0--0-0-0--0-0-0--0-0-0--0-|
D-4--|-4-------|-5-5--5-3-3--3-1-1--1-1-1--1-|-4-4--4-4-4--4-4-4--4-4-4--4-|

e-----------------------------|-----------------------------|
b-----------------------------|-----------------------------|
g-5-5--5-3-3--3-1-1--1-1-1--1-|-0-0--0-0-0--0-0-0--0-0-0--0-|
a-5-5--5-3-3--3-1-1--1-1-1--1-|-0-0--0-0-0--0-0-0--0-0-0--0-|
D-5-5--5-3-3--3-1-1--1-1-1--1-|-4-4--4-4-4--4-4-4--4-4-4--4-|

e-----------------------------|-----------------------------|
b-----------------------------|-----------------------------|
g-5-5--5-3-3--3-1-1--1-1-1--1-|-0-0--0-0-0--0-0-0--0-0-0--0-|
a-5-5--5-3-3--3-1-1--1-1-1--1-|-0-0--0-0-0--0-0-0--0-0-0--0-|
D-5-5--5-3-3--3-1-1--1-1-1--1-|-4-4--4-4-4--4-4-4--4-4-4--4-|

e-----------------------------|-----------------------------|
b-----------------------------|-----------------------------|
g-5-5--5-3-3--3-1-1--1-1-1--1-|-0-0--0-0-0--0-0-0--0-0-0--0-|
a-5-5--5-3-3--3-1-1--1-1-1--1-|-0-0--0-0-0--0-0-0--0-0-0--0-|
D-5-5--5-3-3--3-1-1--1-1-1--1-|-4-4--4-4-4--4-4-4--4-4-4--4-|

e----|----|----|---------|----|----|----|--------------------|
b----|----|----|---------|----|----|----|--------------------|
g----|----|----|---------|-5--|----|----|-------------3-2v-2-|
d-3--|-3--|-3--|---------|-5--|-3--|-3--|---------3-2--------|
a-3--|-3--|-3--|-----3-2-|-3--|-3--|-3--|-----3-2------------|
D-3--|-3--|-3--|-3-2-----|----|-3--|-3--|-3-2----------------|

e---------------------------------|
b---------------------------------|  <-- This Riff
g---------------------------------|  <-- Is Repeated
d-----------------------------2-1-|  <-- 7 times (I think)
a---3-2---2-1---1---3-2---2-1-----|
D-3-----3-----3---3-----3---------|

e-----------------|
b-----------------|
g-----------------|
D-----------------|
A---3-2---2-1---1-|
D-3-----3-----3---|

e-----------------|
b-----------------| <-- This Riff
g-------------3-2-| <-- Is Repeated
d---------3-2-----| <-- 4 times
a-----3-2---------|
D-3-2-------------|

And thats it for the first guitar!

And now for guitar 2...

e---|---------|---------------------|
b---|---------|---------------------|
g---|---------|-12-12--12-14-14--14-|
d-0-|-0-pick--|-x--x---x--x--x---x--|
a-0-|-0-slide-|-10-10--10-12-12--12-|
D-4-|-4-------|---------------------|

e-------------------------------------------------------|
b-------------------------------------------------------|
g-15-15-15-15-15-15-11-11-11-11-11-11-11-11-11-11-11-11-|
d-x--x--x--x--x--x--x--x--x--x--x--x--x--x--x--x--x--x--|
a-13-13-13-13-13-13-9--9--9--9--9--9--9--9--9--9--9--9--|
D-------------------------------------------------------|

e-------------------------------------------------------------------------|
b-------------------------------------------------------------------------|
g-12-12-12-14-14-14-15-15-15-15-15-15-11-11-11-11-11-11-11-11-11-11-11-11-|
d-x--x--x--x--x--x--x--x--x--x--x--x--x--x--x--x--x--x--x--x--x--x--x--x--|
a-10-10-10-12-12-12-13-13-13-13-13-13-9--9--9--9--9--9--9--9--9--9--9--9--|
D-------------------------------------------------------------------------|

e-------------------------------------------------------------------------|
b-------------------------------------------------------------------------|
g-12-12-12-14-14-14-15-15-15-15-15-15-11-11-11-11-11-11-11-11-11-11-11-11-|
d-x--x--x--x--x--x--x--x--x--x--x--x--x--x--x--x--x--x--x--x--x--x--x--x--|
a-10-10-10-12-12-12-13-13-13-13-13-13-9--9--9--9--9--9--9--9--9--9--9--9--|
D-------------------------------------------------------------------------|

e-------------------------------------------------------------------------|
b-------------------------------------------------------------------------|
g-12-12-12-14-14-14-15-15-15-15-15-15-11-11-11-11-11-11-11-11-11-11-11-11-|
d-x--x--x--x--x--x--x--x--x--x--x--x--x--x--x--x--x--x--x--x--x--x--x--x--|
a-10-10-10-12-12-12-13-13-13-13-13-13-9--9--9--9--9--9--9--9--9--9--9--9--|
D-------------------------------------------------------------------------|

e---------------------------------|
b---------------------------------|
g---------------------------------|
d-----------------------------2-1-|
a---3-2---2-1---1---3-2---2-1-----|
D-3-----3-----3---3-----3---------|

e-------------------------|
b-------------------------|
g-------------------------|
D-------------------------|
A---3-2---2-1---1-----3-2-|
D-3-----3-----3---3-2-----|

e---------------------------------|
b---------------------------------|
g---------------------------------|
d-----------------------------2-1-|
a---3-2---2-1---1---3-2---2-1-----|
D-3-----3-----3---3-----3---------|

e-------------------------|
b-------------------------|
g-------------------------|
D-------------------------|
A---3-2---2-1---1-----3-2-|
D-3-----3-----3---3-2-----|

e---------------------------------|
b---------------------------------|  <-- This Riff
g---------------------------------|  <-- Is Repeated
d-----------------------------2-1-|  <-- 7 times (I think)
a---3-2---2-1---1---3-2---2-1-----|
D-3-----3-----3---3-----3---------|

e-----------------|
b-----------------|
g-----------------|
D-----------------|
A---3-2---2-1---1-|
D-3-----3-----3---|

e-----------------|
b-----------------| <-- This Riff
g-------------3-2-| <-- Is Repeated
d---------3-2-----| <-- 4 times
a-----3-2---------|
D-3-2-------------|

This tab is 99.9% right! Im sure of it! Although please dont slaughter me if there are a 
mistakes!
Добавлено: 28.05.2012
Другие материалы по этой песне:
  • Аккорды и текст

Страница создана 28.05.2012
http://primanota.ru/avenged-sevenfold/breaking-thier-hold-chords.htm
Привет, Гость.
Предлагаем пройти революционный курс по гитаре.
Подарок от PrimaNota.Ru, забирай!