PrimaNota.ru - самый крупный в мире бесплатный архив песенных текстов, аккордов, табулатур и нот


Avenged Sevenfold - Soundnig The Seventh Trumpet (album) - таба, видео

Регистрация Запомнить меня
Войти через:  Facebook Google Twitter Vk Yandex Mail.ru

Avenged Sevenfold - Soundnig The Seventh Trumpet (album) - таба, видео

Печатать
Просмотров: 138
I decided to compile a bunch of tabs for this album so that it would be easier 
to print and learn. Enjoy it.

Credit goes to everyone who tabbed these songs. Credit to me on To End the Rapture
and Lips of Deceit. 

Sounding the Seventh Trumpet
Track 1- To end the Rapture
Track 2- Turn the other Way
Track 3- Darkness Surounding
Track 4- The Art of Subconsconcious Illusion
Track 5- We come out at Night
Track 6- Lips of Deceit
Track 7- Warmness on the Soul
Track 8- An Epic of Time Wasted
Track 9- Breaking Their hold
Track 10- Forgotten FAces
Track 11- Thick and Thin
Track 12- Streets
Track 13- Shattered by Broken Dreams

To End the Rapture

Rhythm guitar.  Play 8x
E-------------------------------------|
B-------------------------------------|
G-------------------------------------|
D--0----0-0-2-3---3---3-10---8---10---|
A--0----0-0-2-3---3---3-10---8---10---|
D--0----0-0-2-3---3---3-10---8---10---|
        : : :

Lead Guitar.
E-----------------------------------------------------------|
B-----------------------------------------------------------|
G-------------------------12-14-12-------------*------------|
D-12---12-12-14-15\---/15------------15---14--15----14------|
A------------------------------------------------------15---|
D-----------------------------------------------------------|

E--------------------------------------------------------------------------|
B--------------------------------------------------------------------------|
G------------------------17---19-------------------------------------------|
D12---12-14-15\---14-15----------------------------------------------------|
A-----------------------------------------------------------13h15h17-15h17-|
D----------------------------------15h17-15h17h18-15h17h18-----------------|

E--------------------------------------------------------------------------|
B-----------------------------------------------------------/20----/22b-20\|
G----------------14h15-14h15h17-19\---/19-19-21-22\-/22p17-----17----------|
D-13h15h17-13h15-----------------------------------------------------------|
A--------------------------------------------------------------------------|
D--------------------------------------------------------------------------|

E-18/20/18-1818-1717-1515-1717-1515-1313-15/18-17p15p13--------------------|
B-------------------------------------------------------17p15p13-----------|
G--------------------------------------------------------------12h14/15h17-|
D--------------------------------------------------------------------------|
A--------------------------------------------------------------------------|
D--------------------------------------------------------------------------|

E------------|
B------------|
G------------|
D14/15h17h19-
A------------|
D------------|

Tapping begins:

E-17b-------------------------------------------------------------|
B-----------------------------------------------------------------|
G-----t21p19p17t21p19h17-t19p16h17t19p16h17-t17p14h16t17p14h16h17-|
D-----------------------------------------------------------------|
A-----------------------------------------------------------------|
D-----------------------------------------------------------------|

E--------------------------------------------------------------|
B--------------------------------------------------------------|
G-t17t19p12h14h16t19t17p16p14p12h16t17-t21p14h15h17t19p15h17---|
D--------------------------------------------------------------|
A--------------------------------------------------------------|
D--------------------------------------------------------------|

E-------------------------------------------------t15t17p10h13p12t15p13---|
Bt18p11h15p13t17t18p15p11-t20p17t18p13h15p11t18t20------------------------|
G-------------------------------------------------------------------------|
D-------------------------------------------------------------------------|
A-------------------------------------------------------------------------|
D-------------------------------------------------------------------------|

E-t18p13h15p13t20t18p15-t20p17p15t18p15t20p15-t20p18p15h17p15t10p15h18/22~\|
B--------------------------------------------------------------------------|
G--------------------------------------------------------------------------|
D--------------------------------------------------------------------------|
A--------------------------------------------------------------------------|
D--------------------------------------------------------------------------|

End song with:

E------|
B------|
G------|
D--0~--|
A--0~--|
D--0~--|

Turn the Other Way

Riff A:

e|-------------------|
B|-------------------|
G|-------------------|
D|--0---3-6--8-7--3~-|
A|--0---3-6--8-7--3~-|
D|--0---3-6--8-7--3~-|

---

Riff B:

e|----------------------------------------------------|
B|----------------------------------------------------|
G|----------------------------------------------------|
D|--000-00000-0-00000-----(5)-000-00000-0-00000--0-1--|
A|--000-00000-0-00000-(5)-----000-00000-0-00000--0-1--|
D|--000-00000-0-00000---------000-00000-0-00000--0-1--|
    ... ..... . .....         ... ..... . .....  .

---

Riff C:

e|--------------------------------------------------------|
B|--------------------------------------------------------|
G|--------------------------------------------------------|
D|--000-00000-0-00000-----(5)-----000-00000-0-00000--0-1--|
A|--000-00000-0-00000-(5)-----(5)-000-00000-0-00000--0-1--|
D|--000-00000-0-00000-------------000-00000-0-00000--0-1--|
    ... ..... . .....             ... ..... . .....  .

---

Riff D:

e|----------------------------------------------------------------|
B|----------------------------------------------------------------|
G|----------------------------------------------------------------|
D|--0-0---0-0-0---0---0-0-0-----(5)-0-0---0-0-0---0---0-0-0--0-1--|
A|--0-0---0-0-0---0---0-0-0-(5)-----0-0---0-0-0---0---0-0-0--0-1--|
D|--0-0---0-0-0---0---0-0-0---------0-0---0-0-0---0---0-0-0--0-1--|

---

Riff E:

e|--------------------------------------------------------------------|
B|--------------------------------------------------------------------|
G|--------------------------------------------------------------------|
D|--0-0---0-0-0---0---0-0-0-----(5)-----0-0---0-0-0---0---0-0-0--0-1--|
A|--0-0---0-0-0---0---0-0-0-(5)-----(5)-0-0---0-0-0---0---0-0-0--0-1--|
D|--0-0---0-0-0---0---0-0-0-------------0-0---0-0-0---0---0-0-0--0-1--|

---

Riff F:

e|-------------------------------|
B|-------------------------------|
G|-------------------------------|
D|-------------------------------|
A|--5-8-7----8--8-7-8-7-8/10-10--|
D|--------10-8--8-7-8-7-8/10-10--|

---

Riff G:

e|-------------------------------------|
B|-------------------------------------|
G|-------------------------------------|
D|------------------------7h8----------|
A|--5-8-7----8--8h10-8-10-----8p7-8-7--|
D|--------10-8--------------------8-7--|

---

Riff H:

e|------------------------------|
B|------------------------------|
G|------------------------------|
D|------------------------------|
A|--5-8-7----8--8h10-8-7-8-7----|
D|-------10-8---------------10--|
    .

---

Riff I:

e|------------------------------------------------|
B|------------------------------------------------|
G|-------------------------------------------7-/--|
D|--000-00000-0-00000-----000-00000-0-00000--7-/--|
A|--000-00000-0-00000-----000-00000-0-00000--5-/--|
D|--000-00000-0-00000-----000-00000-0-00000-------|
    ... ..... . .....     ... ..... . .....

---

Riff J:

e|-------------------------------|
B|-------------------------------|
G|-------------------------------|
D|--0---0---0---------------(5)--|
A|--0---0---0---5-3-0------------|
D|--0---0---0---------6-5-3------|

---

Riff K:

e|-----------------------------------------------------------|
B|-----------------------------------------------------------|
G|-----------------------------------------------------------|
D|--0--0--0--0------------------1--1--1--1--------------(5)--|
A|--0--0--0--0------------------1--1--1--1--5-3-0------------|
D|--0--0--0--0--3p0-0-5p0-0-3p0-1--1--1--1--------6-5-3------|

---

Riff L:

e|-----------------------------------------------------------|
B|-----------------------------------------------------------|
G|----------------------------------------------------5p0-6--|
D|--0-0-----------0-0---------0-0-----------0-0-0-0----------|
A|--0-0------6p5--0-0------6--0-0------6p5--0-0-0-0----------|
D|--0-0--6p5------0-0--6p5----0-0--6p5------0-0-0-0----------|

---

Riff M:

e|-------------------------------|
B|-------------------------------|
G|-------7---8--------/8---10----|
D|--0-0----7---7--0-0----8----8--|
A|--0-0-----------0-0------------|
D|--0-0-----------0-0------------|

---

Riff N:

e|------------------------------------------------------|
B|------------------------------------------------------|
G|-------10h12p10---------------------------------------|
D|--0-0-----------12-10--12h13p12p10--------------------|
A|--0-0------------------------------13-12-13p12-10-12--|
D|--0-0-------------------------------------------------|

---

Riff O:

e|------------------------------------|
B|------------------------------------|
G|-------10-12------------------------|
D|--0-0--------12--12-13-12-10----10--|
A|--0-0------------------------13-----|
D|--0-0-------------------------------|

---

Riff P:

e|---------------------------------------------------|
B|--6------8-8-10-10-11-----3------------------------|
G|--5------7-7--9--9-10-----2------------------------|
D|--3------5-5--7--7--8-----0-----1------3-----0-----|
A|--3-x12--5-5--7--7--8-x8--0-x8--1-x16--3-x8--0-x8--|
D|--3------5-5--7--7--8-----0-----1------3-----0-----|

e|-------------------------------------------------|
B|-------------------------------------------------|
G|---------------------3------------7-7---7-7-7-7--|
D|--5------3-3--1------3-x16--3-----7-7---7-7-7-7--|
A|--5-x14--3-3--1-x16--1------3-x8--5-5---5-5-5-5--|
D|--5------3-3--1-------------3--------------------|

---

Riff Q:

e|----------------------------------------|
B|----------------------------------------|
G|----------------------------------------|
D|--5-5---5-5-5-5----5-5---555-6-5-1-3-6--|
A|--5-5---5-5-5-5----5-5---555-6-5-1-3-6--|
D|--5-5---5-5-5-5----5-5---555-6-5-1-3-6--|
                             . . . . . .

---

Riff R:

e|---------------------------------------------------|
B|---------------------------------------------------|
G|----------------------------0h2-0------------------|
D|-----------------------------------3--2-3-2-0---2--|
A|----5-6-5--5-8-7-5-3-3--0-1-------------------3----|
D|--0------------------------------------------------|

---

Riff S:

e|----------------------------------------------------------|
B|----------------------------------------------------------|
G|----------------------------------------------------------|
D|-------------------5/7-5--7-8-7--8-10-8--7--5-7-5---------|
A|----5-6-5--5-8-7-5--------------------------------8-7--8--|
D|--0-------------------------------------------------------|

---

Song Order:

---

Right, this might be a bit tough to explain as there are so many riffs and a lot of them
are only a few seconds long, but, this is the order in which each riff is played with a
few of the lyrics that are sung at that point, to keep you on track):

Riff A	x1
Riff B	x1
Riff C 	x1
Riff D 	x1
Riff E	x1
Riff F	x1	(..slit my wrists..)
Riff G	x1
Riff F	x1
Riff H	x1
Riff I	x1
Riff D	x1
Riff E	x1
Riff J	x1
Riff K	x4	(..came here for something..)
Riff L	x8	Half way through these eight, (..you hold the power..)
Riff M	x1
Riff N	x1
Riff M	x1
Riff O	x1
Riff P	x1	(..i've been the wrong one time and time again..)
Riff Q	x8
Riff R	x1	After a few R's and S's, (..you've turned away from me..)
Riff S	x1

Repeat Riffs R and S whilst the song fades out.

Darkness Surrounding

e:-------------------|-------------------------|
B:-------------------|-------------------------|
G:---5---7---9--(x2)-|--5x---------------------|
D:---5---7---9-------|--5x---------------------|
A:---3---5---7-------|--3x---------------------|
D:-------------------|---------\pick slide\----|

0:15 Riff A x8
e:--------------------|
B:--------------------|
G:--------------------|
D:--2-2--2h3p2-0-3----|
A:--------------------|
D:--------------------|

0:25 (repeat intro riff)

0:39 (repeat Riff A) x8


0:49 Riff B x8
e:--------------------------------------|
B:--------------------------------------|
G:--------------------------------------|
D:---2-2--2h3p2-0-3---2-2--2h3p2-0-3----|
A:---2-2--------------2-2---------------|
D:---2-2--------------2-2---------------|

0:58 Riff C
...... ...... x2
e:-----------------------------------------------------------|
B:-------------------------------------------------5/8--7*---|
G:------------------4/5-4--------------------4/5-4-----------|
D:------22222222--2-------4-5*---22222222--2-----------------|
A:------22222222-----------------22222222--------------------|
D:------22222222-----------------22222222--------------------|

1:08 Riff D . . . . . . .
e:--------------------------------------------------|
B:--------------------------------------------------|
G:--------------------------------------------------|
D:----2-3-3--3p1--3-3----2-3-3-3--------------------|
A:----2-1-1--1-1--1-1----2-1-1-1--------------------|
D:----2------------------2---------2-3-2-3-5-3-2----|
. . . . . .
e:----------------------------------------------------------|
B:----------------------------------------------------------|
G:----------------------------------------------------------|
D:----2-3-3--3p1--3-3----2-3-3-3--------------------2--2----|
A:----2-1-1--1-1--1-1----2-1-1-1--------------------2--2----|
D:----2------------------2--------2--3--2--3--5--3--2--2----|


1:20 Riff E . . . . . . . .
e:------------------------------------------------------------|
B:------------------------------------------------------------|
G:------------------------------------------------------------|
D:-------3-3-3--2-2--3-3--3p1--3-3-3--------------------2-2---|
A:-------1-1-1--2-2--1-1--1-1--1-1-1--------------------2-2---|
D:--------------2-2-------------------2--3--2--3--5--3--2-2---|
. . . . . . . .
e:-----------------------------------------------------------------|
B:-----------------------------------------------------------------|
G:-----------------------------------------------------------------|
D:-------3-3-3-----------3-3-3--2-2--3-3-3--------------------2~---|
A:-------1-1-1--(pause)--1-1-1--2-2--1-1-1--------------------2~---|
D:------------------------------2-2---------2--3--2--3--5--3--2~---|


1:40 (bass riff)


1:50 Riff F . . . . . . . . . . . . . . . . . . . . . . . .
e:---------------------------------------------------------------|
B:---------------------------------------------------------------|
G:---------------------------------------------------------------|
D:-------------0-2-0-2-3-2-0-2--0-2-0-2-3-2-0-2--0-2-0-2-3-2-0-2-|
A:-------------0-2-0-2-3-2-0-2--0-2-0-2-3-2-0-2--0-2-0-2-3-2-0-2-|
D:-------------0-2-0-2-3-2-0-2--0-2-0-2-3-2-0-2--0-2-0-2-3-2-0-2-|
. . . . . . . 1:58
e:-------------------|----------------|
B:-------------------|----------------|
G:-------------------|----------------|
D:--0-2-0-2-3-2-0----|----------------|
A:--0-2-0-2-3-2-0----|----------------|
D:--0-2-0-2-3-2-0----|--\pick slide\--|

1:59 Riff G
e:--------------------------------------------------------------------|
B:--------------------------------------------------------------------|
G:--------------------------------------------------------------------|
D:--0-2-0-2-3-2-0-0--0-2-0-2-3-2-0-0--0-2-0-2-3-2-0-0--0-2-0-2-3-0----|
A:--0-2-0-2-3-2-0-0--0-2-0-2-3-2-0-0--0-2-0-2-3-2-0-0--0-2-0-2-3-0----|
D:--0-2-0-2-3-2-0-0--0-2-0-2-3-2-0-0--0-2-0-2-3-2-0-0--0-2-0-2-3-0----|

e:----------------|
B:----------------|
G:----------------|
D:----------------|
A:----------------|
D:--(pick slide)--|

e:---------------------------------------------------------------------|
B:---------------------------------------------------------------------|
G:---------------------------------------------------------------------|
D:--0-2-0-2-3-2-0-0--0-2-0-2-3-2-0-0-------------------0-2-0-2-3-0~----|
A:--0-2-0-2-3-2-0-0--0-2-0-2-3-2-0-0----(pause)--------0-2-0-2-3-0~----|
D:--0-2-0-2-3-2-0-0--0-2-0-2-3-2-0-0-------------------0-2-0-2-3-0~----|


2:21 Riff H . . . . . . . . . . . . . . . . . . . . . . . .
e:-----------------------------------------------------------------------|
B:-----------------------------------------------------------------------|
G:-----------------------------------------------------------------------|
D:-------------2-2-2-3-2-3-2--2-2-3-2-3-2--2-2-2-3-2-3-2--2-2-2-2-2-2-2--|
A:-------------2-2-2-3-2-3-2--2-2-3-2-3-2--2-2-2-3-2-3-2--2-2-2-2-2-2-2--|
D:-------------2-2-2-3-2-3-2--2-2-3-2-3-2--2-2-2-3-2-3-2--2-2-2-2-2-2-2--|

. . . . . . . . . . . . . . . . . . . .
e:----------------------------------------------------------|
B:----------------------------------------------------------|
G:----------------------------------------------------------|
D:-----2-2-3-2-3-2--2-2-3-2-3-2--2-2-2-3-2-3-2---3-3-3-3----|
A:-----2-2-3-2-3-2--2-2-3-2-3-2--2-2-2-3-2-3-2---1-1-1-1----|
D:-----2-2-3-2-3-2--2-2-3-2-3-2--2-2-2-3-2-3-2--------------|

. . . . . . . . . . . . . . . . . . . . . . . .
e:---------------------------------------------------------------|
B:---------------------------------------------------------------|
G:---------------------------------------------------------------|
D:-----2-2-2-3-2-3-2--2-2-3-2-3-2--2-2-2-3-2-3-2--2-2-2-2-2-2-2--|
A:-----2-2-2-3-2-3-2--2-2-3-2-3-2--2-2-2-3-2-3-2--2-2-2-2-2-2-2--|
D:-----2-2-2-3-2-3-2--2-2-3-2-3-2--2-2-2-3-2-3-2--2-2-2-2-2-2-2--|

. . . . . . . . . . . . . . . . . . . .
e:----------------------------------------------------------|
B:----------------------------------------------------------|
G:----------------------------------------------------------|
D:-----2-2-3-2-3-2--2-2-3-2-3-2--2-2-2-3-2-3-2---3-3-3-3----|
A:-----2-2-3-2-3-2--2-2-3-2-3-2--2-2-2-3-2-3-2---1-1-1-1----|
D:-----2-2-3-2-3-2--2-2-3-2-3-2--2-2-2-3-2-3-2--------------|

. . . . . . . . . . . . . . .
e:--------------------------------------------------------------------|
B:--------------------------------------------------------------------|
G:--------------------------------------------------------------------|
D:---2-2-2-3-2-3-2--2-2-3-2-2-2--2-2-2-3-2-3-2--2-2-2-3-2--3-3-3-3----|
A:---2-2-2-3-2-3-2--2-2-3-2-2-2--2-2-2-3-2-3-2--2-2-2-3-2--1-1-1-1----|
D:---2-2-2-3-2-3-2--2-2-3-2-2-2--2-2-2-3-2-3-2--2-2-2-3-2-------------|

. . . . . . . . . . . . . . . . . .
e:--------------------------------------------------------------------|
B:--------------------------------------------------------------------|
G:--------------------------------------------------------------------|
D:---2-2-2-3-2-3-2--2-2-3-2-2-2--2-2-2-3-2-3-2--2-2-2-3-2--3-3-3-3----|
A:---2-2-2-3-2-3-2--2-2-3-2-2-2--2-2-2-3-2-3-2--2-2-2-3-2--1-1-1-1----|
D:---2-2-2-3-2-3-2--2-2-3-2-2-2--2-2-2-3-2-3-2--2-2-2-3-2-------------|

2:46 Riff I x2
e:--------------------------------|
B:--------------------------------|
G:-------------4-------------4~---|
D:------2----4-----2--5----4------|
A:----2----5-----3-------5--------|
D:--2-----------------------------|

3:02 Riff J . . . . . . . . x4
e:---------------------------------------------------------|
B:---------------------------------------------------------|
G:---------------------------------------------------------|
D:--------------2-2--2-2--2-2--2-2---5-5--5-5--0-0--0-0----|
A:--------------2-2--2-2--2-2--2-2---3-3--3-3--0-0--0-0----|
D:--------------2-2--2-2--2-2--2-2-------------0-0--0-0----|

3:21
(repeat Riff I) x4

3:49
(repeat Riff J) x4

4:07 x4 4:26
e:-------------------------------|--------|
B:-------------------------------|--------|
G:-----------------0------0------|--------|
D:-----2--2~-----2------3--------|---2~---|
A:-----2--2~---3------4----------|---2~---|
D:-----2--2~---------------------|---2~---|


The Art of Subconscious Illusion

. - Palm Mute
> - Strum
* - Harmonc
H - Hammer On
P - Pull Off
/ - Slide Up
~ - Let Ring
-------------------------

Guitar 1:						     2x
|-------------------------------------------------------------|
|-------------------------------------------------------------|
|-5-5-5-5-5-5-5-6-6-6-6-6-6-6---------------------------------|
|-5-3-3-5-5-5-5-6-6-6-6-6-6-6---------------------------------|
|-3-3-3-3-3-3-3-4-4-4-4-4-4-4---------------------------------|
|-------------------------------------------------------------|
    . .   . .     . .   . .

Guitar 2: Pick Slide

Both Guitars
|-------------------------------------------------------------|
|-------------------------------------------------------------|
|-5>----8>-----------5>---------------------------------------|
|-5>-6>-8>-8>-10/6---5>-6>--2-2-2-2-2-2-2-2-2-2---------------|
|-3>-6>-6>-8>--8/4---3>-6>--2-2-2-2-2-2-2-2-2-2---------------|
|----6>----8>-----------6>--2-2-2-2-2-2-2-2-2-2---------------|
                            . . . . . . . . . .

|--------------------------------|--------------------------------|
|--------------------------------|--------------------------------|After 2x w/ Palm Mute
|--------------------------------|--------------------------------|Do 2x w/out
|---------------------------3-2--|--------------------------------|
|-5-4-5-7-5-4-2-4-5-4-5-7-5------|---5-4-5-7-5-4-2-4-5-4-5--1-3---|
|-5-4-5-7-5-4-2-4-5-4-5-7-5------|---5-4-5-7-5-4-2-4-5-4-5--1-3---|
  . . . . . . . . . . . . .          . . . . . . . . . . .


|-----------------------------------------------------|
|-----------------------------------------------------|
|----------5*-----------------------------------------|
|-0-1-3-0------1-3-0~---1-3-0~---1-3------------------|
|-0-1-3-0------1-3-0~---1-3-0~---1-3------------------|
|-0-1-3-0------1-3-0~---1-3-0~---1-3------------------|

				     4x
|-------------------------------------|
|-------------------------------------|
|-------------------------------------|
|--0-0-0-0-0-0-0-0-1-1-1-1-3-3-3-3----|
|--0-0-0-0-0-0-0-0-1-1-1-1-3-3-3-3----|
|--0-0-0-0-0-0-0-0-1-1-1-1-3-3-3-3----|
PM . . . . . . . . . . . . . . . .

Guitar 1:					        6x
|---------------------5----------------------------------|
|---5-5-5-6-5-5-5h6h8---5-5-5-6--------------------------|
|---5-5-5---5-5---------5-5-5---0-3-2-0---0--------------|
|---------------------------------------4----2p0---------|
|--------------------------------------------------------|
|--------------------------------------------------------|
      .       .           .     . . . . . .

Guitar 2:
|-----------------------------------------------|
|-----------------------------------------------|
|-------------------------------0-3-2-0---0-----|
|-0---------0-----------0---------------4---2P0-|
|-0---------0-----------0-----------------------|
|-0---------0-----------0-----------------------|
                                . . . . . .

|-----------------------------------------------|
|-----------------------------------------------|
|-------------------------------0-3-2-0---0-----|
|-0---------0--0--0-0-0-----------------4---2P0-|
|-0---------0--0--0-0-0-------------------------|
|-0---------0--0--0-0-0-------------------------|
                                . . . . . .
			     4x
|-----------------------------|
|-----------------------------|
|-----------------------------|
|-0-0-1-0-0-3-0-0-1--0-3-5-7--|
|-0-0-1-0-0-3-0-0-1--0-3-5-7--|
|-0-0-1-0-0-3-0-0-1--0-3-5-7--|
		     . . . .

Guitar 1:	 12x
|------------------|
|------------------|
|--0-3-2-0---0-----|
|----------4---2P0-|
|------------------|
|------------------|
   . . . . . .

Guitar 2:
|---------------------------|
|---------------------------|
|---------------------------|
|--0-----3-----5-----7------|
|--0-----3-----5-----7------|
|--0-----3-----5-----7------|

		  4x
|------------------|
|------------------|
|------------------|
|-0-3-5-7-0-3-5-7--|
|-0-3-5-7-0-3-5-7--|
|-0-3-5-7-0-3-5-7--|

Both Guitars
|-----------------------|
|-----------------------|
|----------5*-----------|
|-0-1-3-0------1-3------|
|-0-1-3-0------1-3------|
|-0-1-3-0------1-3------|

				     2x
|-------------------------------------|
|-------------------------------------|
|-------------------------------------|
|--0-0-0-0-0-0-0-0-1-1-1-1-3-3-3-3----|
|--0-0-0-0-0-0-0-0-1-1-1-1-3-3-3-3----|
|--0-0-0-0-0-0-0-0-1-1-1-1-3-3-3-3----|
PM . . . . . . . . . . . . . . . .
						             4x
|-------------------------------------------------------------|
|-------------------------------------------------------------|
|-------------------------------------------------------------|
|-0-0-0-------0-0-0-----5-0-0-0-------1-3---------------------|
|-0-0-0-5h7-0-0-0-0-5h7---0-0-0-5h7-0-1-3---------------------|
|-0-0-0-------0-0-0-------0-0-0-------1-3---------------------|
    . .         . .         . .
					4x
|-----------|----------------------------|
|-----------|----------------------------|
|-----------|----------------------------|
|-12~---6~--|-5-4-5-7-5-4-2-4-5-4-5-7-5--|
|-12~---6~--|-5-4-5-7-5-4-2-4-5-4-5-7-5--|
|-12~---6~--|-5-4-5-7-5-4-2-4-5-4-5-7-5--|
	      . . . . . . . . . . . . .
		       			   2x
|-------------------------------------------|
|-------------------------------------------|
|-------------------------------------------|
|-12~---6~--5--5-5-5-5-5-5-5-5-5-5-5-5-5-5--|
|-12~---6~--5--5-5-5-5-5-5-5-5-5-5-5-5-5-5--|
|-12~---6~--5--5-5-5-5-5-5-5-5-5-5-5-5-5-5--|
               . . . . . . . .

Pick Slide Back & Forth

|----------------------------|
|----------------------------|
|----------------------------|
|-5-5-5-5-5-5-5-5-5-5-5-5-5--|
|-5-5-5-5-5-5-5-5-5-5-5-5-5--|
|-5-5-5-5-5-5-5-5-5-5-5-5-5--|
  . . . . . . . . . . . . .

		       			   3x
|-------------------------------------------|
|-------------------------------------------|
|-------------------------------------------|
|-12~---6~--5--5-5-5-5-5-5-5-5-5-5-5-5-5-5--|
|-12~---6~--5--5-5-5-5-5-5-5-5-5-5-5-5-5-5--|
|-12~---6~--5--5-5-5-5-5-5-5-5-5-5-5-5-5-5--|
               . . . . . . . .
G. 1		       G. 2
|---------------------|---------------|
|---------------------|---------------|
|---------------------|---------------|
|-12~---6~--5---------|-12~---6~---0--|
|-12~---6~--5H6P5H6P5-|-12~---6~---0--|
|-12~---6~--5---------|-12~---6~---0--|

We Come out at night

e|---------------------------------------------|
B|---------------------------------------------|
G|-:-:-----:-:-:-:-:-:-:-:-:-:-:-:---------1---| Play
D|-0-0-----0-0-0-1-1-0-1-1-0-0-0-0---------1---|  6x
A|-0-0-----0-0-0-1-1-0-1-1-0-0-0-0---------1---|
D|-0-0-----0-0-0-1-1-0-1-1-0-0-0-0-------------|

Guitar One plays above 4x

Guitar Two:
e|----------------------------------------|
B|----------------------------------------|
G|---/7--8---/10--12--8-7--8--5-3--5--3---| Play
D|----------------------------------------|  2x
A|----------------------------------------|
D|----------------------------------------|

Both Guitars:
e|--------------------------------------------------|
B|--------------------------------------------------|
G|--------------------------------------------------|
D|-1-----/4--3--1-0-------3-----6--4--3-4---7---8---|
A|-1-----/4--3--1-0-------3-----6--4--3-4---7---8---|
D|-1-----/4--3--1-0-------3-----6--4--3-4---7---8---|

e|------------------------------------------|
B|------------------------------------------|
G|-----::-----------------------------------|
D|-1---11---4--3--1-0-------3-----6--4--3---|
A|-1---11---4--3--1-0-------3-----6--4--3---|
D|-1---11---4--3--1-0-------3-----6--4--3---|

Guitar One:
e|-------------------------------------------------|
B|-------------------------------------------------|
G|---.-------------.-------------.-------------.---| Play
D|-1-1-----------1-1-----------0-0-----------0-0---|  4x
A|-1-1-----------1-1-----------0-0-----------0-0---|
D|-1-1-----------1-1-----------0-0-----------0-0---|

Guitar Two:
e|--------------------------------------------------------------------|
B|--------------------------------------------------------------------|
G|--8-8-8-8---------8-8-8-8---------11-11-11-11---------11-11-11-11---| Play
D|--x-x-x-x---------x-x-x-x----------x--x--x--x----------x--x--x--x---|  4x
A|--6-6-6-6---------6-6-6-6----------9--9--9--9----------9--9--9--9---|
D|--------------------------------------------------------------------|

Both Guitars:
e|-------------------------------------------------|
B|-------------------------------------------------|
G|-3----5----2---:-:-----------:-:-----------:-:---| Play
D|-3----5----2---0-0-----------0-0-----------0-0---|  2x
A|-1----3----0---0-0-----------0-0-----------0-0---|
D|---------------0-0-----------0-0-----------0-0---|

e|---------------------------------------------------------|
B|-----------------------7-------------8-------------7-----|
G|-3----5----2---:-:---7---7---:-:---8---8---:-:---7---7---| Play
D|-3----5----2---0-0-----------0-0-----------0-0-----------|  2x
A|-1----3----0---0-0-----------0-0-----------0-0-----------|
D|---------------0-0-----------0-0-----------0-0-----------|

e|--------------------|
B|--------------------|
G|-3----5----2--------|
D|-3----5----2---0~---|
A|-1----3----0---0~---|
D|---------------0~---|

Breakdown...
e|------------------------------------------------------------------------------|
B|------------------------------------------------------------------------------|
G|-------------------5-5-5-5-5-5-5-5--------------------------------------------|
D|-0-0-0-0-0-0-0-0-0-5-5-5-5-5-5-5-5-3-3-3-3-3-3--------------------------------|
A|-0-0-0-0-0-0-0-0-0-3-3-3-3-3-3-3-3-3-3-3-3-3-3--------------------------------|
D|-0-0-0-0-0-0-0-0-0-----------------3-3-3-3-3-3-2-3-5-3-2-3-5-3-2-3---| Play---|
                                                                              |
e|---------------------------------------------------------------------|2x
B|---------------------------------------------------------------------|
G|-------------------5-5-5-5-5-5-5-5-----------------:::---:::---:::---|
D|-0-0-0-0-0-0-0-0-0-5-5-5-5-5-5-5-5-3-3-3-3-3-3-3-3-333---222---333---|
A|-0-0-0-0-0-0-0-0-0-3-3-3-3-3-3-3-3-3-3-3-3-3-3-3-3-333---222---333---|
D|-0-0-0-0-0-0-0-0-0-----------------3-3-3-3-3-3-3-3-333---222---333---|

Guitar One...
e|-----------------------------------------------------------------------|
B|-----------------------------------------------------------------------|
G|-----------------------------------------------------------------------| Play
D|-----------------------------------------------------------------------|  4x
A|---/5---------------/5---------------/6---------------/6------7--6-----|
D|-0------6--5--6-1-0------6--5--6-0-1------7--6--7-2-1------6-------1---|

Guitar two:
e|-----------------------------------------------------|
B|-----------------------------------------------------|
G|-.----------------.----------------------------------| Play
D|-0--------------1-0--------------0-1~------------1---|  2x
A|-0--------------1-0--------------0-1~------------1---|
D|-0--------------1-0--------------0-1~------------1---|

Both Gutiars
e|-----------------------------------------------|
B|-----------------------------------------------|
G|-:::---:::---::-------------:::---:::---::-----| Play
D|-000---000---000~-----------111---111---111~---|  4x
A|-000---000---000~-----------111---111---111~---|
D|-000---000---000~-----------111---111---111~---|

e|--------------------------------------------|
B|--------------------------------------------|
G|--------------------------------------------|
D|-0-0---0-1---4---1p0---0-0-1-3-4------------|
A|-0-0---0-1---4---1p0---0-0-1-3-4---|--------|
D|-0-0---0-1---4---1p0---0-0-1-3-4---| Play---|
                                            |
e|-----------------------------------|  2x ---|
B|-----------------------------------|--------|
G|--------------------------------------------|
D|-0-0---0-1---4---1p0---0-0-----1------------|
A|-0-0---0-1---4---1p0---0-0-3-5--------------|
D|-0-0---0-1---4---1p0---0-0------------------|

e|-------------------------------------|
B|-------------------------------------|
G|---.---.---.-------.-----------------|
D|-0-0---0---0---0-0-0---x-x-------1---|
A|-0-0---0---0---0-0-0---x-x-2-3-5-----|
D|-0-0---0---0---0-0-0---x-x-----------|

e|-------------------------------------|
B|-------------------------------------|
G|-------.---.-------.-----------------| Play
D|-0-0-0-0---0---0-0-0---x-x-------1---| 3x
A|-0-0-0-0---0---0-0-0---x-x-2-3-5-----|
D|-0-0-0-0---0---0-0-0---x-x-----------|

e|------|
B|------|
G|------|
D|-0~---|
A|-0~---|
D|-0~---|

e|-------------------|
B|-------------------|
G|-:::---:::---:::---|
D|-333---222---333---|
A|-333---222---333---|
D|-333---222---333---|

Breakdown...
e|---------------------------------------------------------------------|
B|---------------------------------------------------------------------|
G|-------------------5-5-5-5-5-5-5-5-----------------------------------|
D|-0-0-0-0-0-0-0-0-0-5-5-5-5-5-5-5-5-3-3-3-3-3-3-----------------------|
A|-0-0-0-0-0-0-0-0-0-3-3-3-3-3-3-3-3-3-3-3-3-3-3-----------------------|
D|-0-0-0-0-0-0-0-0-0-----------------3-3-3-3-3-3-2-3-5-3-2-3-5-3-2-3---|
                                                                              |
e|---------------------------------------------------------------------|  2x
B|---------------------------------------------------------------------|
G|-------------------5-5-5-5-5-5-5-5-----------------:::---:::---:::---|
D|-0-0-0-0-0-0-0-0-0-5-5-5-5-5-5-5-5-3-3-3-3-3-3-3-3-333---222---333---|
A|-0-0-0-0-0-0-0-0-0-3-3-3-3-3-3-3-3-3-3-3-3-3-3-3-3-333---222---333---|
D|-0-0-0-0-0-0-0-0-0-----------------3-3-3-3-3-3-3-3-333---222---333---|

End.

Rate, comment.

Lips of Deceit

|---------------------------------------------------------|
|---------------------------------------------------------|
|-2/7-7-9h10-9-7/3-9-10-9-7/10-12-14-12-10/5h7-9-7-5/7----|
|-2/7-7-7--7-7-7/3-7--7-7-7/10-10-10-10-10/5-5-5-5-5/7----|
|---------------------------------------------------------|
|---------------------------------------------------------|

at 0:39 end like this

0:39-0:46
listen to the song for the>>>>>>>>>> 2
some are palm mute and some are not  2
                                     0
Gtr I
|-------------|
|-------------|
|--5/2----2---|
|--5/2----2---|
|---------0---|
|-------------|
gtr II
|------------|
|------------|
|--6-2-5-9---|
|--x-x-x-x---|
|--4-0-3-7---|
|------------|

0:47-1:02
|-------------------------------------------------------|
|-------------------------------------------------------|
|-2/7-9-10-9-7/3-9-10-9-7/10-12-14-12-10/5-7-9-7-5/7----|
|-2/7-7--7-7-7/3-7--7-7-7/10-10-10-10-10/5-5-5-5-5/7----|
|-------------------------------------------------------|
|-------------------------------------------------------|

1:03-1:05
|-------------|
|-------------|
|--5/2----2---|
|--5/2----2---|
|---------0---|
|-------------|

1:06-1:08
|----------------|
|----------------|
|--2~------------|
|--2~------------|
|--0~------------|
|----------------|

1:09-1:28 do it all twice
|----------------------------------|
|----------------------------------|
|--2-2-2-5-3-3-3-2-0-0-5-0-2-2-2---|
|---0-0-0---0-0-0---0-0----0-0-0---|
|----------------------------------|
|----------------------------------|

                         (last 10 harmonic)
|-----------------------------------------|
|------------------------------8-10-------|
|-2-0-2-2-2--5-7-7-7-10-9-9-10------------|
|------0-0-0----0-0-0----0-0--------------|
|-----------------------------------------|
|-----------------------------------------|

1:28-1:37                                         (last 10 harmonic)
|-----------------------------------------------------------|-------|
|-----------------------------------------------------------|-8(10)-|
|-2-2-2-5-3-3-3-2-0-0-5-0-2-2-2-2-0-------5-7-7-7-10-9-9-10-|-------|
|-----------------------------------3-3-3-------------------|-------|
|-----------------------------------------------------------|-------|
|-----------------------------------------------------------|-------|

1:37-1:50(do this at the end of that ^)
|---------------------------------------------------|
|-------------8—8h10-8------------------------------|
|---10-9-9-10----------10-12-10-9-7-9-10-9-7-5-7~---|
|----------------------------------------------0~---|
|---------------------------------------------------|
|---------------------------------------------------|

1:50-2:10
no guitar

2:10-2:29(twice)
|--------------------------------------|
|--------------------------------------|
|--9/10-10-10-10--9-9-9-9/10-10-10-10--|
|--x-x---x--x--x--x-x-x-x-x---x--x--x--|
|--7/8---8--8--8--7-7-7-7/8---8--8--8--|
|--------------------------------------|

|-------------------------------------------------|
|-------------------------------------------------|
|-9-9-9-9/-12-12-12-12-12-12/14-14-14-10-10-10-10-|
|-x-x-x-x---x--x--x—x---x--x--x—-x--x--x—-x--x--x-|
|-7-7-7-7/-10-10-10-10-10-10/12-12-12--8--8--8—-8-|
|-------------------------------------------------|

|--------------------------------------|
|--------------------------------------|
|--9/10-10-10-10--9-9-9-9/10-10-10-10--|
|--x-x---x--x--x--x-x-x-x-x---x--x--x--|
|--7/8---8--8--8--7-7-7-7/8---8--8--8--|
|--------------------------------------|

|-------------------------------------------|
|-------------------------------------------|
|-9-9-9--5-5-5-5-5-5-5----------------------|
|-x-x-x--x-x-x-x-x-x-x--5555-3333-----------|
|-7-7-7--3-3-3-3-3-3-3--5555-3333-----------|
|-----------------------5555-3333-----------|

2:29-2:31
|--------------------|
|--------------------|
|--------------------|
|--5--0000-0-0-0-----|
|--5--0000-0-0-0-----|
|--5--0000-0-0-0-----|

2:31-2:52
|-----------------------------------------|
|-----------------------------------------|
|--------5/3------3/5------5/7—-7/--------|
|-0-000—-5/3-000—-3/5-000—-5/7—-7/--------|
|-0-000—-3/1-000—-1/3-000—-3/5—-5/--------|
|-0-000------000------000-----------------|
    xxx      xxx      xxx

2:52-3:01
|-------------------------------------------|
|-------------------------------------------|
|---7-77-10-10-10-7-77-10-10-10--5-5-5-5----|
|---7-77--7--7--7-7-77--7--7--7--7-7-7-7----|
|-------------------------------------------|
|-------------------------------------------|
      xx     x  x   xx     x  x

2:57
|-------------|
|-------------|
|-------------|
|-0~----------|
|-0~----------|
|-0~----------|

2:57-3:19
|---------------------------------------------------|
|---------------------------------------------------|
|--2222222-3333333-5555555-7777777------------------|
|--2222222-3333333-5555555-7777777------------------|
|--0000000-1111111-3333333-5555555------------------|
|---------------------------------------------------|
3:19-3:26
|------------------------------|
|------------------------------|
|---7-7-10-10--7-7-7-5-777-----|
|---7-7--7--7--7-7-7-7-777-----|
|------------------------------|
|------------------------------|
      x     x  x x
3:26
    Gtr I      Gtr II
|---------|----------|
|---------|----------|
|--7-8-7--|----------|
|--7-7-7--|--7-8-7---|
|---------|--7-8-7---|
|---------|--7-8-7---|

3:28-3:35
|---------------------|
|---------------------|
|--7------------------|
|--7-7-6--------------|
|--5-7-6--------------|
|----7-6---0005323----|

3:35-3:44
|---------------------|
|---------------------|
|--7-8-7--------------|    listen for
|--7-8-7--------------|    the order…
|--5-6-5--------------|
|---------------------|

|---------------------|
|---------------------|
|--7-8-7---8----------|
|--7-8-7---x----------|
|--5-6-5---6----------|
|---------------------|

|---------------------|
|---------------------|
|--7-8-7--------------|
|--7-8-7---00---------|
|--5-6-5---00---------|
|----------00---------|
           xx
3:44-3:50
|---------------------------------------------------|
|---------------------------------------------------|
|--2222222-----------------------3333333--2222222---|
|--2222222--0000-0-0--0000-0-0---3333333--2222222---|
|--0000000--0000-0-0--0000-0-0---1111111--0000000---|
|-----------0000-0-0--0000-0-0----------------------|
            xxxx x x  xxxx x x
3:50-4:09
|---------------------------------------------------|
|---------------------------------------------------|
|--2222222-3333333-5555555-7777777------------------|
|--2222222-3333333-5555555-7777777------------------|
|--0000000-1111111-3333333-5555555------------------|
|---------------------------------------------------|

end on
|------|
|------|
|--7---|
|--7---| don't let ring
|--5---|
|------|

thats all any corrections send to

magnificent_adroitness2hotmail.com

-itsmaximo

Warmness on the Soul (SOLO)

Solo:
e|---------------------------------------------------------------------------|
B|---------------------------------------------------------------------------|
G|-------------------------------------9-7-44\5~7\9-9/7-4-4h5p4-2~~9\12-7\14-|
D|-----5-7-5~~7-5-3\4----------------7h9-------------------------------------|
A|-\5-7---------------7-55~2-2/7~~7h9----------------------------------------|
E|---------------------------------------------------------------------------|


e-|--------------------------------------------------------------------------|
B-|--------------------------------------------------------------------------|
G-|9-55\7-5~7\99/7-7--12-11---12-11---12\14-12-11-12-11----------11-12-11~~--|
D-|------------------------12------12-------------------12\14~~14------------|
A-|--------------------------------------------------------------------------|
E-|--------------------------------------------------------------------------|


Warmness on the Soul (CHORDS)
Piano intro: (1 bar each)

||: Em | C | G | D :||

Verse 1 ("Your hazel green tint eyes...)

||Em | C | G | D || x 4

"And in you I confide"
                 | C | D | G G/F# | Em D | C | D |

Verse 2 ("And we have gone through good and bad times...")

||Em | C | G | D || x 4


Chorus

 "I gave my heart to you
| C          D        Em

   "I gave my heart cos nothing can compare in this world to you, woaho
| C           D         G       G/F#   Em           D        C       D

Guitar solo

| G | D | Em | Em | C | G | D | D | C | D |G G/F# | Em D | C | D |

Verse 3 (Same as verse 2)

Chorus

Piano solo (same as verse 2)

Chorus

Em


An Epic of Time Wasted

Intro
|--------------------------------------------------------------------------|
|--------------------------------------------------------------------------|
|-----------------------7--------------------------------------------------|
|---0----1-1--0----1-1--x----1-1--0----1-1~--------------------------------|
|---0----1-1--0----1-1--5----1-1--0----1-1~--------------------------------|
|---0----1-1--0----1-1-------1-1--0----1-1~--------------------------------|
PM       ---       ---       ---       ------------------------------------|
(cont.) x4                                        Fill into verse (pre verse)
|-------------------------------------------------|------------------------|
|-------------------------------------------------|------------------------|
|-------------------------------------------------|------------------------|
|---------/7---------------------/7---------------|---0~-----0-0-0---------|
|---0-----/5---------------0-----/5---------------|---0~-----0-0-0---------|
|---0--00-----0--2-3--5-1--0--00-----0--2-3--5-7--|---0~-----0-0-0---------|
PM     --                     --                             --------------|
Verse x4
|--------------------------------------------------------------------------|
|--------------------------------------------------------------------------|
|---------/7---------------------/7----------------------------------------|
|---0-----/7---------------0-----/7----------------------------------------|
|---0--00-/5--0--2-3--5-1--0--00-/5--0--2-3--5-7---------------------------|
|---0--00-----0--2-3--5-1--0--00-----0--2-3--5-7---------------------------|
PM     --                     --
Verse??
|------------------------------------------3p2p0---------------------------|
|-----------------------------------------------3p2p0----------------------|
|----------------------------------------------------3p2p0-----------------|
|---0--0--------0--0--------0--0--------0-----------------3p2p0------------|
|---0--0--1111--0--0--1111--0--0--1111--0----------------------------------|
|---0--0--1111--0--0--1111--0--0--1111--0----------------------------------|
PM        ----        ----        -----------------------------------------|
Mid-Section
|----------------------------------------------------------------------------|
|----------------------------------------------------------------------------|
|----------------------------------------------------------------------------|
|---5-5-5-5-5-5-5-5-7-7-7-7-7-7-7-7-9-9-9-9-12-12-12-12-11-11-11-11-11-9-7---|
|---5-5-5-5-5-5-5-5-7-7-7-7-7-7-7-7-9-9-9-9-12-12-12-12-11-11-11-11-11-9-7---|
|---5-5-5-5-5-5-5-5-7-7-7-7-7-7-7-7-9-9-9-9-12-12-12-12-11-11-11-11-11-9-7---|
PM                                                                  ---------|
(cont.)
|--------------------------------------------------------------------------|
|--------------------------------------------------------------------------|
|--------------------------------------------------------------------------|
|---5-5-5-5-5-5-5-5-7-7-7-7-7-7-7-7-4-4-4-4-4-4-4-4------------------------|
|---5-5-5-5-5-5-5-5-7-7-7-7-7-7-7-7-4-4-4-4-4-4-4-4------------------------|
|---5-5-5-5-5-5-5-5-7-7-7-7-7-7-7-7-4-4-4-4-4-4-4-4------------------------|

Then Guitar 2 kick in after both guitars have finished the above riffs
|-----------------------------------------------------2p0------------------|
|---------------------------------------------------------3-2h3p2----------|
|-----------------------------------------------------------------2--------|
|--------------------------------------------------------------------------|
|--------------------------------------------------------------------------|
|--------------------------------------------------------------------------|

Guitar 1 (cont.)
|--------------------------------------------------------------------------|
|--------------------------------------------------------------------------|
|--------------------------------------------------------------------------|
|---5-5-5-5-5-5-5-5-7-7-7-7-7-7-7-7-12-12-12-12-11-11-11-11-9-9-9-9-7-7-7-7|
|---5-5-5-5-5-5-5-5-7-7-7-7-7-7-7-7-12-12-12-12-11-11-11-11-9-9-9-9-7-7-7-7|
|---5-5-5-5-5-5-5-5-7-7-7-7-7-7-7-7-12-12-12-12-11-11-11-11-9-9-9-9-7-7-7-7|

Guitar 1 (cont.)
--------------------------|
--------------------------|
--------------------------|
---5-5-5-5-5-5-7-4\-------|
---5-5-5-5-5-5-7-4\-------|
---5-5-5-5-5-5-7-4\-------|

Guitar 2 (cont.) This part is sketchy
|--------------------------------------------------------------------------|
|--------------------------------------------------------------------------|
|---4-4-4-4-4-4-4-4-6-6-6-6-6-6-6-6-7-9-7-7-6-7-6-6-4-6-4-4-2-4-2-2-2-4----|
|--------------------------------------------------------------------------|
|--------------------------------------------------------------------------|
|--------------------------------------------------------------------------|

Guitar 2 (cont.)
-------------------------|
-------------------------|
----0-0-0-2--------------|
------------4------------|
-------------------------|
-------------------------|

Both Guitars (double time feel)
|-----------------------------------------------------------------------------|
|-----------------------------------------------------------------------------|
|-----------------------------------------------------------------------------|
|-----------------------------------------------------------------------------|
|---------------9------9------9-7-------------5------5------5-4---------------|
|---9999999999999-999999-999999-7-5555555555555-555555-555555-4---------------|
PM  ------------  -----  -----    ------------  -----  -----
(cont.)
---------------------------------------------------------------------------|
---------------------------------------------------------------------------|
---------------------------------------------------------------------------|
------------------------------------------------------5-----5--------------|
----------------2------2------2-4-------------7-7-33333-33333--------------|
----2222222222222-222222-222222-4-7777777777777-7--------------------------|
PM  ------------  -----  -----    ------------    ----  ----

|--------------------------------------------------------------------------|
|--------------------------------------------------------------------------|
|---4----------------------------------------------------------------------|
|---4-4-4-4-4-4-4-11-11-9-9-7-7-6-6-5-------------11-11-9-9-11-11-14-14----|
|---2-2-2-2-2-2-2--9--9-7-7-5-5-4-4-5-5-5-5-5-5-5--9--9-7-7--9--9-12-12----|
|-----------------------------------5-5-5-5-5-5-5--------------------------|
PM    -----------------------------   -------------------------------------|
(cont.)
---------------------------------------------------------------------------|
---------------------------------------------------------------------------|
---------------------------------------------------------------------------|
---0-------------9-9-7-7-6-6-7-7-7-----------------------------------------|
---0-0-0-0-0-0-0-7-7-5-5-4-4-5-5-7-7-7-7-7-7-7-7-7-7-7-7-7-----------------|
---0-0-0-0-0-0-0-----------------7-7-7-7-7-7-7-7-7-7-7-7-7-----------------|
PM  ----------------------------   ----------------------------------------|

|--------------------------------------------------------------------------|
|--------------------------------------------------------------------------|
|---4----------------------------------------------------------------------|
|---4-4-4-4-4-4-4-11-11-9-9-7-7-6-6-5-------------11-11-9-9-11-11-14-14----|
|---2-2-2-2-2-2-2--9--9-7-7-5-5-4-4-5-5-5-5-5-5-5--9--9-7-7--9--9-12-12----|
|-----------------------------------5-5-5-5-5-5-5--------------------------|
PM    -----------------------------   -------------------------------------|
(cont.)
---------------------------------------------------------------------------|
---------------------------------------------------------------------------|
---------------------------------------------------------------------------|
---0-------------9-9-7-7-6-6-7-7-7-----------------------------------------|
---0-0-0-0-0-0-0-7-7-5-5-4-4-5-5-7-7-7-7-7-7-7-7--7--7--7--7--7------------|
---0-0-0-0-0-0-0-----------------7-7-7-7-7-7-7-7--7--7--7--7--7------------|
PM  ----------------------------   ----------------------------------------|
Guitar 1 x2
|--------------------------------------------------------------------------|
|--------------------------------------------------------------------------|
|--------------------------------------------------------------------------|
|--0--------1--------8--------3--------------------------------------------|
|--0--------1--------8--------3--------------------------------------------|
|--0--------1--------8--------3--------------------------------------------|

Guitar 2 x2
|--------------------------------------------------------------------------|
|--------------------------------------------------------------------------|
|------------------3/7--------5--------------------------------------------|
|--0--------1------x/x--------x--------------------------------------------|
|--0--------1------1/5--------3--------------------------------------------|
|--0--------1--------------------------------------------------------------|

Guitar 1 Fill
|--------------------------------------------------------------------------|
|--------------------------------------------------------------------------|
|--------------------------------------------------------------------------|
|--0-0---------------------------------------------------------------------|
|--0-0-0-0-0-0-0-0-0-0-0-0-0-0-0-0-----------------------------------------|
|--0-0-0-0-0-0-0-0-0-0-0-0-0-0-0-0-----------------------------------------|
PM     --------------------------------------------------------------------|
Guitar 2 Fill
|--------------------------------------------------------------------------|
|--------------------------------------------------------------------------|
|------<7><7><7><7><7><7><7><7><7><7><7><7><7><7>--------------------------|
|--0-0---------------------------------------------------------------------|
|--0-0---------------------------------------------------------------------|
|--0-0---------------------------------------------------------------------|

Both guitars again
|--------------------------------------------------------------------------|
|--------------------------------------------------------------------------|
|-----------------------------------------------------------------7\\------|
|--0-0-----0-0-0---0-0-----0-0-0---0-0-----0-0-0---0-0-----0-0-0--7\\------|
|--0-0--0--0-0-0---0-0--0--0-0-0---0-0--0--0-0-0---0-0--0--0-0-0--5\\------|
|--0-0--0--0-0-0---0-0--0--0-0-0---0-0--0--0-0-0---0-0--0--0-0-0-----------|
PM      -               -               -               -
(cont.) x2
|--------------------------------------------------------------------------|
|--------------------------------------------------------------------------|
|--------------------------------------------------------------------------|
|--0-0-----0-0-------------0-0-----0-0-------------------------------------|
|--0-0-0-0-0-0-0-0-0-0-0-0-0-0-0-0-0-0-000000000000------------------------|
|--0-0-0-0-0-0-0-0-0-0-0-0-0-0-0-0-0-0-000000000000------------------------|
PM     --      -----------     ---     ------------------------------------|
Bridge Guitar 1
|--------------------------------------------------------------------------|
|--------------------------------------------------------------------------|
|--------------------------------------------------------------------------|
|--------------------------------------------------------------------------|
|--1p0-1p0-1p0-1p0-1p0-1p0-1p0-1p0-1p0-1p0-1p0-1p0-1p0-1p0-1p0-1p0---------|
|--1p0-1p0-1p0-1p0-1p0-1p0-1p0-1p0-1p0-1p0-1p0-1p0-1p0-1p0-1p0-1p0---------|

Bridge Guitar 2
|--------------------------------------------------------------------------|
|----------------------------------4p3-4p3-4p3-4p3-4p3-4p3-4p3-4p3---------|
|--------------------------------------------------------------------------|
|--------------------------------------------------------------------------|
|--1p0-1p0-1p0-1p0-1p0-1p0-1p0-1p0-----------------------------------------|
|--1p0-1p0-1p0-1p0-1p0-1p0-1p0-1p0-----------------------------------------|

The harmonic was hard to find. It's the only one that sounds close to the
song that I could find. Or you could use the alternate ending presented
|-------------------------------------<6>-----|----------------------------|
|---------------------------------------------|----------------------------|
|---------------------------------------------|---8------------------------|
|---------------------------------------------|---x------------------------|
|--5-8-7-5-8-7-5-1~----5-8-7-5-8-7-5----------|---6------------------------|
|--5-8-7-5-8-7-5-1~----5-8-7-5-8-7-5----------|----------------------------|

Pre-interlude??
|--------------------------------------------------------------------------|
|--------------------------------------------------------------------------|
|--------------------------------------------------------------------------|
|--------------------------------------------------------------------------|
|--0-0-0-0-0-0-0-0-0-0-0-0-0-0-0-0-0-0-0-0-0-0-0-0-0-0-0-0-0-0-0-0---------|
|--0-0-0-0-0-0-0-0-0-0-0-0-0-0-0-0-0-0-0-0-0-0-0-0-0-0-0-0-0-0-0-0---------|
PM ------------------------------------------------------------------------|

|--------------------------------------------------------------------------|
|--------------------------------------------------------------------------|
|--------------------------------------------------------------------------|
|-----------------------------------------------------------------0--------|
|--0-0-0-0-0-0-0-0-0-0-0-0-0-0-0-0-0-0-0-0-0-0-0-0-00000000000000-0--------|
|--0-0-0-0-0-0-0-0-0-0-0-0-0-0-0-0-0-0-0-0-0-0-0-0-00000000000000-0--------|
PM ------------------------------------------------------------------------|

|--------------------------------------------------------------------------|
|--------------------------------------------------------------------------|
|--------------------------------------------------------------------------|
|--------------------------------------------------------------------------|
|------0------0------0------0------0------0------0------0------0------0----|
|--111-0--111-0--111-0--111-0--111-0--111-0--111-0--111-0--111-0--111-0----|
PM ---    ---    ---    ---    ---    ---    ---    ---    ---    ---

|--------------------------------------------------------------------------|
|--------------------------------------------------------------------------|
|--------------------------------------------------------------------------|
|--------------------------------------------------------------------------|
|------0------0------0------0------0------0--------------------------------|
|--111-0--111-0--111-0--111-0--111-0--111-0--------------------------------|
PM ---    ---    ---    ---    ---    ---
Pre-outro (clean)
|----------------------------------------------------------------------------------|
|----------------------------------------------------------------------------------|
|--------3~-------2~--------3~-------2~--------3~-------2~--------3~------2~---2---|
|-----3~-------3~--------3~-------3~--------3~-------3~--------3~-------3~---------|
|--5~-------5~--------5~-------5~--------5~-------5~--------5~-------5~------------|
|----------------------------------------------------------------------------------|

Outro Guitar 1 x3
|--------------------------------------------------------------------------|
|--------------------------------------------------------------------------|
|--------------------------------------------------------------------------|
|--8-8-8-8-8-8-8-3-0-0-0-0-------------------------------------------------|
|--8-8-8-8-8-8-8-3-0-0-0-0-----------10-12-10------------------------------|
|--8-8-8-8-8-8-8-3-0-0-0-0--12-10-12----------12-10------------------------|

(cont.)
---------------------------------------------------------------------------|
---------------------------------------------------------------------------|
---------------------------------------------------------------------------|
--8-8-8-8-8-8-8-10-0-0-0-0-------------------------------------------------|
--8-8-8-8-8-8-8-10-0-0-0-0-----------10-12-10------------------------------|
--8-8-8-8-8-8-8-10-0-0-0-0--12-10-12----------12-10------------------------|

Guitar 1 (cont.) the 4th time you play this
|--------------------------------------------------------------------------|
|--------------------------------------------------------------------------|
|--------------------------------------------------------------------------|
|--8-8-8-8-8-8-8-3-0-0-0-0-------------------------------------------------|
|--8-8-8-8-8-8-8-3-0-0-0-0-----------10-12-10------------------------------|
|--8-8-8-8-8-8-8-3-0-0-0-0--12-10-12----------12-10------------------------|

(cont.)
---------------------------------------------------------------------------|
---------------------------------------------------------------------------|
---------------------------------------------------------------------------|
---8-8-8-8-8-8-8-10-0~-----------------------------------------------------|
---8-8-8-8-8-8-8-10-0~-----------------------------------------------------|
---8-8-8-8-8-8-8-10-0~-----------------------------------------------------|

Outro Guitar 2 x2
|--------------------------------------------------------------------------|
|--------------------------------------------------------------------------|
|--------------------------------------------------------------------------|
|--8-8-8-8-8-8-8-3-0-0-0-0-------------------------------------------------|
|--8-8-8-8-8-8-8-3-0-0-0-0-----------10-12-10------------------------------|
|--8-8-8-8-8-8-8-3-0-0-0-0--12-10-12----------12-10------------------------|

(cont.)
---------------------------------------------------------------------------|
---------------------------------------------------------------------------|
---------------------------------------------------------------------------|
---8-8-8-8-8-8-8-10-0-0-0-0------------------------------------------------|
---8-8-8-8-8-8-8-10-0-0-0-0-----------10-12-10-----------------------------|
---8-8-8-8-8-8-8-10-0-0-0-0--12-10-12----------12-10-----------------------|

Then Guitar 2 (cont.)
|----------------------------------------------------------------------------|
|----------------------------------------------------------------------------|
|--15-15-15-15-15-15-15-15-14-14-14-14-14-14-14-14-15-15-15-15-15-15-15-15---|
|--15-15-15-15-15-15-15-15-14-14-14-14-14-14-14-14-15-15-15-15-15-15-15-15---|
|--13-13-13-13-13-13-13-13-12-12-12-12-12-12-12-12-13-13-13-13-13-13-13-13---|
|----------------------------------------------------------------------------|

(cont.)
---------------------------------------------------------------------------|
---------------------------------------------------------------------------|
---------------------------------------------------------------------------|
--12-12-12-12-12-12-12-12--------------------------------------------------|
--12-12-12-12-12-12-12-12--------------------------------------------------|
--12-12-12-12-12-12-12-12--------------------------------------------------|

(cont.)
|--------------------------------------------------------------------------|
|--11-11-11-11-11-11-11-11-10-10-10-10-10-10-10-10-11-11-11-11-11-11-11----|
|---x--x--x--x--x--x--x--x--x--x--x--x--x--x--x--x--x--x--x--x--x--x--x-107|
|---8--8--8--8--8--8--8--8--7--7--7--7--7--7--7--7--8--8--8--8--8--8--8--xx|
|------------------------------------------------------------------------85|
|--------------------------------------------------------------------------|


Breaking Their Hold

E||-------------------|------------------|-------------------|
B||-------------------|------------------|-------------------|
G||-------------------|------------------|-------------------|
D||-------------------|------------------|-------------------|
A||--0----------------|------------------|--0----------------|
D||--4----------------|------------------|--4----------------|

----------------------------------------|
----------------------------------------|
----------------------------------------|
--15-14-13-12-11-10-9-8-7-6-5-4-3-2-1-0-|
--15-14-13-12-11-10-9-8-7-6-5-4-3-2-1-0-|
----------------------------------------|

------------------------------|------------------------------|
------------------------------|------------------------------|
--12--12----12--14--14----14--|--15--15----15--15--15----15--|
------------------------------|------------------------------|
--10--10----10--12--12----12--|--13--13----13--13--13----13--|
------------------------------|------------------------------|

------------------------------|------------------------------|
------------------------------|------------------------------|
--11--11----11--11--11----11--|--11--11----11--11--11----11--|
------------------------------|------------------------------|
--9---9-----9---9---9-----9---|--9---9-----9---9---9-----9---|
------------------------------|------------------------------|

----------------
Добавлено: 21.02.2012
Другие материалы по этой песне:
  • Аккорды и текст

Страница создана 21.02.2012
http://primanota.ru/avenged-sevenfold/soundnig-the-seventh-trumpet-album-chords.htm
Привет, Гость.
Предлагаем пройти революционный курс по гитаре.
Подарок от PrimaNota.Ru, забирай!