PrimaNota.ru - самый крупный в мире бесплатный архив песенных текстов, аккордов, табулатур и нот


Avenged Sevenfold - Waking The Fallen (album) - таба, бас-таба, видео

Регистрация Запомнить меня
Войти через:  Facebook Google Twitter Vk Yandex Mail.ru

Avenged Sevenfold - Waking The Fallen (album) - таба, бас-таба, видео

Печатать
Просмотров: 238
band: A7x
album: Waking the Fallen

Well I though because of the amount of good tabs around,
it'd be easier for me too print them all, if they were all in one
tab. If any of the people involved have a problem, post in comments
and I'll remove it


tabbers: funeralforafrie, thienskater, PunkasPhuck, nothingface_78 and
people at www.wakingthefallen.cjb.net, LessThanLuke


Waking the Fallen

e|------------------------------------------------------------
B|------------------------------------------------------------
G|------------------------------------------------------------
D|-0/2-2-22-2--0/2-2-22-2--0/2-2-22-2--0/2-2-22-2--0/2-2-22-2-
A|-0/2-2-22-2--0/2-2-22-2--0/2-2-22-2--0/2-2-22-2--0/2-2-22-2-
D|-0/2-2-22-2--0/2-2-22-2--0/2-2-22-2--0/2-2-22-2--0/2-2-22-2-
     : : :: :    : : :: :    : : :: :    : : :: :    : : :: : 

e|------------------------------------------------------------
B|------------------------------------------------------------
G|------------------------------------------------------------
D|-0/2-2-22-2--0/2-2-22-2--0/2-2-22-2--0/2-2-22-2--0/2-2-22-2-
A|-0/2-2-22-2--0/2-2-22-2--0/2-2-22-2--0/2-2-22-2--0/2-2-22-2-
D|-0/2-2-22-2--0/2-2-22-2--0/2-2-22-2--0/2-2-22-2--0/2-2-22-2-
     : : :: :    : : :: :    : : :: :    : : :: :    : : :: : 

e|------------------------------------------------------------
B|------------------------------------------------------------
G|------------------------------------------------------------
D|-0/2-2-22-2--0/2-2-22-2--0/2-2-22-2--0/2-2-22-2--0/2-2-22-2-
A|-0/2-2-22-2--0/2-2-22-2--0/2-2-22-2--0/2-2-22-2--0/2-2-22-2-
D|-0/2-2-22-2--0/2-2-22-2--0/2-2-22-2--0/2-2-22-2--0/2-2-22-2-
     : : :: :    : : :: :    : : :: :    : : :: :    : : :: : 


e|------------------------------------------------------------
B|------------------------------------------------------------
G|------------------------------------------------------------
D|-2-2-22-2--2-2-22-2--2-2-22-2--2-2-22-2--2-2-22-2-----------
A|-2-2-22-2--2-2-22-2--2-2-22-2--2-2-22-2--2-2-22-2-----------
D|-2-2-22-2--2-2-22-2--2-2-22-2--2-2-22-2--2-2-22-2-----------
   : : :: :  : : :: :  : : :: :  : : :: :  : : :: : 

e|------------------------------------------------------------
B|------------------------------------------------------------
G|------------------------------------------------------------
D|-2-2-22-2--2-2-22-2--2-2-22-2--2-2-22-2--2-2-22-2-----------
A|-2-2-22-2--2-2-22-2--2-2-22-2--2-2-22-2--2-2-22-2-----------
D|-2-2-22-2--2-2-22-2--2-2-22-2--2-2-22-2--2-2-22-2-----------
   : : :: :  : : :: :  : : :: :  : : :: :  : : :: : 

e|------------------------------------------------------------
B|------------------------------------------------------------
G|------------------------------------------------------------
D|-2-2-22-2--2-2-22-2--2-2-22-2--2-2-22-2--2-2-22-2-----------
A|-2-2-22-2--2-2-22-2--2-2-22-2--2-2-22-2--2-2-22-2-----------
D|-2-2-22-2--2-2-22-2--2-2-22-2--2-2-22-2--2-2-22-2-----------
   : : :: :  : : :: :  : : :: :  : : :: :  : : :: : 

e|------------------------------------------------------------
B|------------------------------------------------------------
G|------------------------------------------------------------
D|-2-2-22-2--2-2-22-2--2-2-22-2--2-2-22-2--2-2-22-2-----------
A|-2-2-22-2--2-2-22-2--2-2-22-2--2-2-22-2--2-2-22-2-----------
D|-2-2-22-2--2-2-22-2--2-2-22-2--2-2-22-2--2-2-22-2-----------
   : : :: :  : : :: :  : : :: :  : : :: :  : : :: : 

e|------------------------------------------------------------
B|------------------------------------------------------------
G|------------------------------------------------------------
D|-2-2-22-2--2-2-22-2--2-2-22-2--2-2-22-2--2-2-22-2-----------
A|-2-2-22-2--2-2-22-2--2-2-22-2--2-2-22-2--2-2-22-2-----------
D|-2-2-22-2--2-2-22-2--2-2-22-2--2-2-22-2--2-2-22-2-----------
   : : :: :  : : :: :  : : :: :  : : :: :  : : :: : 

e|------------------------------------------------------------
B|------------------------------------------------------------
G|------------------------------------------------------------
D|-2-2-22-2--2-2-22-2--2-2-22-2--2-2-22-2--2-2-22-2-----------
A|-2-2-22-2--2-2-22-2--2-2-22-2--2-2-22-2--2-2-22-2-----------
D|-2-2-22-2--2-2-22-2--2-2-22-2--2-2-22-2--2-2-22-2-----------
   : : :: :  : : :: :  : : :: :  : : :: :  : : :: : 

e|------------------------------------------------------------
B|------------------------------------------------------------
G|------------------------------------------------------------
D|-2-2-22-2--2-2-22-2--2-2-22-2--2-2-22-2--2-2-22-2-----------
A|-2-2-22-2--2-2-22-2--2-2-22-2--2-2-22-2--2-2-22-2-----------
D|-2-2-22-2--2-2-22-2--2-2-22-2--2-2-22-2--2-2-22-2-----------
   : : :: :  : : :: :  : : :: :  : : :: :  : : :: : 

e|------------------------------------------------------------
B|------------------------------------------------------------
G|------------------------------------------------------------
D|-2-2-22-2--2-2-22-2--2-2-22-2--2-2-22-2--2-2-22-2-----------
A|-2-2-22-2--2-2-22-2--2-2-22-2--2-2-22-2--2-2-22-2-----------
D|-2-2-22-2--2-2-22-2--2-2-22-2--2-2-22-2--2-2-22-2-----------
   : : :: :  : : :: :  : : :: :  : : :: :  : : :: : 

e|---------------------
B|---------------------
G|---------------------
D|-2-2-22-2--2-2-22-2--
A|-2-2-22-2--2-2-22-2--
D|-2-2-22-2--2-2-22-2--
   : : :: :  : : :: : 

Unholy Confessions version 1 [tabbed by LessThanLuke, funeralforafrie,
toendtherapture]

Riff A:

  GUITAR 1:
e|------------------------------------------------------------------|
B|------------------------------------------------------------------|
G|------------------------------------------------------------------|
D|------------------------------------------------------------------|
A|--00-5---7---8---10---8---7h8p7--------10---8---7-----7---8-------|
D|--00---0---0---0----0---0-------10--88----8---8----77---7---7-10--|
    ..   .   .   .    .   .           ..    .   .    ..   .   .     

  GUITAR 2:
e|------------------------------------------------------------------|
B|------------------------------------------------------------------|
G|------------------------------------------------------------------|
D|-----3---5---7---8---7----5h7p5---------8---7---5~----5---7-------|
A|--00----------------------------7---------0---0---------0---0-7---|
D|--00---0---0---0---0---0------------88-------------77-------------|
    ..   .   .   .   .   .            ..             ..

Riff B:

  GUITAR 1:                                     GUITAR 2:
e|---------------------------------------------|--------------------|
B|---------------------------------------------|--------------------|
G|---------------------------------------------|--------------------|
D|------------------------------------88---77--|--5-5-7-7-3-3-2-3~--|
A|--00-5---7---8---10---8---7h8p7-----88---77--|--------------------|
D|--00---0---0---0----0---0-------10--88---77--|--------------------|
    ..   .   .   .    .   .           

Riff C:

  GUITAR 1:    GUITAR 2:         GUITAR 1:      GUITAR 2:
e|------------|-----------------|--------------|-----------------|
B|------------|-----------------|--------------|-----------------|
G|--7-77-x----|--5-5-3-3-2-0-2--|--------------|-----------------|
D|--7-77-x-0~-|-----------------|--8-8-xx-10~--|--5-5-7-7-3-3-2--|
A|--5-55-x-0~-|-----------------|--8-8-xx-10~--|-----------------|
D|-------x-0~-|-----------------|--8-8-xx-10~--|-----------------|

Riff D:

  GUITAR 1:
e|----------------------------------------------------|
B|----------------------------------------------------|
G|----------------------------------------------------|
D|--1212121212-1212121212-577788888-1010101010101010--|
A|--1212121212-1212121212-577788888-1010101010101010--|
D|--1212121212-1212121212-577788888-1010101010101010--|
     . . . .    . . . . . ........   . . . .   . .

Riff E:

  GUITAR 1:
e|------------|
B|------------|
G|------------|
D|--00-00000--|
A|--00-00000--|
D|--00-00000--|
    .. .....

Riff F:

  GUITAR 2:
e|------------------------------------------------|
B|------------------------------------------------|
G|------------------------------------------------|
D|-----2---3--------------------------------------|
A|--00---------5-7-8--7-5-4--00-7-8-12-13-12-(4)--|
D|--00---0---0---------------00-------------------|
    ..   .   .               ..

Riff G:

  GUITARS 1 & 2:
e|---------------------------------------------------------|
B|---------------------------------------------------------|
G|--77~--------5~------------------------5--5-5-5-5-5-5-5--|
D|--77~--0-2-3-5~--2h3-2h3p2------3-xx3~-5--5-5-5-5-5-5-5--|
A|--55~--0-2-3-3~------------5-3--3-xx3~-3--3-3-3-3-3-3-3--|
D|-------0-2-3--------------------3-xx3~-------------------|

e|-------------------------------------------------|
B|-------------------------------------------------|
G|--77~--------5~--5-5-5-5-5-5-5-------------------|
D|--77~--0-2-3-5~--5-5-5-5-5-5-5--3-xx3~--5-xx-3~--|
A|--55~--0-2-3-3~--3-3-3-3-3-3-3--3-xx3~--5-xx-5~--|
D|-------0-2-3--------------------3-xx3~--5-xx-5~--|

Riff H:

  GUITAR 1:
e|-----------------------------------------------------|
B|-----------------------------------------------------|
G|-----------------------------------------------------|
D|--7-5-7---3-2-3---5-7-5---2-0-2---------------3-2-3--|
A|--------------------------------4-5-8-7-5-4~---------|
D|-----------------------------------------------------|

  GUITAR 2:
E|-----------------------------------------------------|
B|-----------------------------------------------------|
G|-----------------------------------------------------|
D|-----------------------------------------------------|
A|--8-7-8---5-4-5---5-8-7---5-3-4-0-1-3-4-3-1~--4-3-4--|
D|-----------------------------------------------------|

Riff I:

  GUITAR 1:
e|---------------------------------------------------|
B|---------------------------------------------------|
G|---------------------------------------------------|
D|---------------------------------------------------|
A|--0-0-0-0-0-0-0-0-0-0-0-0-0-0-0-0-0-0-0-0-0-0-0-0--|
D|--0-0-0-0-0-0-0-0-0-0-0-0-0-0-0-0-0-0-0-0-0-0-0-0--|
    . . . . . . . . . . . . . . . . . . . . . . . . 

Riff J:
  
  GUITAR 1:
e|------------------------------|
B|------------------------------|
G|------------------------------|
D|--0-12-11-0-10-9-8-0-7-0-7-6--|
A|--0-12-11-0-10-9-8-0-7-0-7-6--|
D|--0-12-11-0-10-9-8-0-7-0-7-6--|

Riff K:

  GUITAR 2:
e|----------------------------------|
B|----------------------------------|
G|----------------------------------|
D|----------------------------------|
A|----------------------------------|
D|--0-11^--0-10^--0-8^--0-7^--0-5^--|

Riff L:

  GUITAR 1:
e|--------------------------------|
B|--------------------------------|
G|--------------------------------|
D|--------------------------------|
A|--------------------------7/4~--|
D|--0-5^--0-5^--0-5^--0-3-0-------|

Riff M:

  GUITAR 1:
e|------|
B|------|
G|------|
D|--00--|
A|--00--|
D|--00--|
    ..

---

Song Order:

---

You can work out when Guitar 2 plays their parts, it's easy to work out. I've
included some notes on Guitar 2 below. The number of strums may be a little off
in the chorus, but, you can work that out, the notes are right.

Riff A		x1 (Guitar 2 is silent).
Riff B		x1 (Guitar 2 is silent).
Riff A		x3 (Guitar 2's harmony of Guitar 1 here).
Riff B		x1 (Guitar 2's harmony of Guitar 1 here).
Riff C		x2 (Guitar 2 plays the little fills noted in the tab).
Riff D		x1 (Guitar 2 plays the same riff as Guitar 1 here).
Riff C		x1 (Guitar 2 plays the little fills noted in the tab).
Riff E		x8 (Guitar 2 silent for four of these, then Riff F four times).
Riff G		x2 (Guitar 2 plays the same riff as Guitar 1 here).
Riff H		x2 (Guitar 2's harmony of Guitar 2 here).
Riff A		x1 (Guitar 2 is silent).
Riff B		x1 (Guitar 2 is silent).
Riff A		x4 (Guitar 2's harmony of Guitar 1 here).
Riff I		x1 (Guitar 2 plays the same riff as Guitar 1 here).
Riff J		x2 (Guitar 2 plays the same riff as Guitar 1 here).
Riff E		x8 (Guitar 2 silent for four of these, then Riff F four times).
Riff E		x4 (Guitar 2 plays Riff K four times here).
Riff L		x1 (Guitar 2 is silent here).
Riff G		x2 (Guitar 2 plays the same riff as Guitar 1 here).
Riff E		x8 (Guitar 2 plays Riff K eight times here).
Riff M		x1 (Guitar 2 plays the same riff as Guitar 1 here).



Unholy Confessions [tabbed by Richie Elledge of Poppa Fearsome]




Intro
|--------------------------------------------------------------------------|
|--------------------------------------------------------------------------|
|--------------------------------------------------------------------------|
|-0-0----------------------------------------------------------------------|
|-0-0--5---7---8---10---8---7h8p7-----------10-0-8-0-7~-------7-0-8-0------|
|-0-0----0---0---0----0---0-------10~--8-8---------------7-7----------10~--|
PM- -    -   -   -    -   -            - -               - -


|-------------------------------------------------|
|-------------------------------------------------|
|-------------------------------------------------|
|-0-0----------------------------------8-8x--7-7x-|
|-0-0--5---7---8---10---8---7h8p7------8-8x--7-7x-|
|-0-0----0---0---0----0---0-------10~--8-8x--7-7x-|
PM- -    -   -   -    -   -



Harmonized part - Guitar 1
|--------------------------------------------------------------------------|
|--------------------------------------------------------------------------|
|--------------------------------------------------------------------------|
|-0-0----------------------------------------------------------------------|
|-0-0--5---7---8---10---8---7h8p7-----------10-0-8-0-7~-------7-0-8-0------|
|-0-0----0---0---0----0---0-------10~--8-8---------------7-7----------10~--|
PM- -    -   -   -    -   -            - -               - -


Harmonized part - Guitar 2
|---------------------------------------------------------------------|
|---------------------------------------------------------------------|
|---------------------------------------------------------------------|
|-0-0--3---5---7---8---7---5h7p5---------8---7---5~-------5---7-------|
|-0-0----------------------------7~--------0---0------------0---0-7~--|
|-0-0----0---0---0---0---0-----------8-8-------------7-7--------------|
PM- -    -   -   -   -   -           - -             - -


Fill
|-----------------|
|-8-8-10-10-6-6-4-|
|-7-7--9--9-5-5-3-|
|-----------------|
|-----------------|
|-----------------|


Verse
|------------------------------------------------------------------------|
|-----------------13-13\11--11\10-10/11------------------8-8-10-10-6-6-4-|
|-7-7-7--7--------12-12\10--10\-9--9/10------------------7-7--9--9-5-5-3-|
|-7-7-7--7-0--0--------------------------8-8-8--8-8-10-------------------|
|-5-5-5--5-0--0--------------------------8-8-8--8-8-10-------------------|
|----------0--0--------------------------8-8-8--8-8-10-------------------|
PM       - -                                    - -


|------------------------------------------------------------------
|------------------------------------------------------------------
|------------------------------------------------------------------
|-12121212-12--1212121212--1212--5-7-8888-8--10101010-10--10-10-10-
|-12121212-12--1212121212--1212--5-7-8888-8--10101010-10--10-10-10-
|-12121212-12--1212121212--1212--5-7-8888-8--10101010-10--10-10-10-
PM-- -- -- --     -- -- -- -- --  -- --  - - - - - -    -- -- -- --  


Bridge
|-----------------|
|-----------------|
|-----------------|
|-0-0---0-0-0-0-0-|
|-0-0---0-0-0-0-0-|
|-0-0---0-0-0-0-0-|
PM- -   - - - - -


Verse
|------------------------------------------------------------|
|------------------------------------------------------------|
|------------------------------------------------------------|
|-0-0------------------------0-0-----------------------------|
|-0-0--7---8---5-7-8--7-5-4~-0-0--7p0-8p0-12p0-13p0-12p0-<4>-|
|-0-0----0-------------------0-0-----------------------------|
PM- -    -                   - -


Chorus
|---------------------------------------------------------------------|
|---------------------------------------------------------------------|
|-7-7-7x---------5--5-5-5---------------------------------5-5-5-5-5-5-|
|-7-7-7x-0--2-3--5--5-5-5--2h3--2h3p2------3-3-3X--3--3-3-5-5-5-5-5-5-|
|-5-5-5x-0--2-3--3--3-3-3-------------5-3--3-3-3X--3--3-3-3-3-3-3-3-3-|
|--------0--2-3----------------------------3-3-3X--3--3-3-------------|


|-------------------------------------------------------------|
|-------------------------------------------------------------|
|-7-7-7x---------5-5-5-5-5-5-5-5------------------------------|
|-7-7-7x-0--2-3--5-5-5-5-5-5-5-5--3-3-3x--3--3-3-3--5-5-5x--3-|
|-5-5-5x-0--2-3--3-3-3-3-3-3-3-3--3-3-3x--3--3-3-3--5-5-5x--5-|
|--------0--2-3-------------------3-3-3x--3--3-3-3--5-5-5x--3-|


Solo part (harmonized)
|-------------------------------------------------------------------|
|-------------------------------------------------------------------|
|-------------------------------------------------------------------|
|-------------------------------------------------------------------|
|-10/12-10---8/10-8-10--8/10-12-10--5/7-5-7-5--8--7--5--4---7/8-7-8-|
|-------------------------------------------------------------------|

Verse   Riff I

|---------------------|
|---------------------|
|---------------------|
|---------------------|
|-0-0-0-0-0-0-0-0-0-0-|
|-0-0-0-0-0-0-0-0-0-0-|
|-0-0-0-0-0-0-0-0-0-0-|
PM- - - - - - - - - -


|----------------------------|
|----------------------------|
|----------------------------|
|-0-12-11-0-10-9-8-0-7-0-7-6-|
|-0-12-11-0-10-9-8-0-7-0-7-6-|
|-0-12-11-0-10-9-8-0-7-0-7-6-|


|---------------------------------|
|---------------------------------|
|---------------------------------|
|-0-11/12-11-0-9/10-9-8-0-7-0-7-6-|
|-0-11/12-11-0-9/10-9-8-0-7-0-7-6-|
|-0-11/12-11-0-9/10-9-8-0-7-0-7-6-|


|--------------------------------|
|--------------------------------|
|--------------------------------|
|--------------------------------|
|--------------------------------|
|-0-11^--0-10^--0-8^--0-7^--0-5^-|


|------------------------------------|
|------------------------------------|
|------------------------------------|
|--------------------------7-7\2-2-2-|
|--------------------------9-9\4-4-4-|
|-0-5^--0-5^--0-5~--0-3-0--7-7\2-2-2-|

Chorus        Riff VI

You can figure out the pattern. Just listen to the song.
     Peace out.



Chapter Four [tabbed by ThienSkater]

Intro:
e-----------------------------------------
B-----------------------------------------
G----------------------------------------- Play
D-0-----2-----3-----------0-----7-----8---  2x
A-0-----2-----3-----------0-----7-----8---
D-0-----2-----3-----------0-----7-----8---

e-------------------------------
B-------------------------------
G-------:-:-:-------:-:-:-:-:--- Play
D-0-----0-0-0-0-----0-0-0-0-0---  8x
A-0-----0-0-0-0-----0-0-0-0-0---
D-0-----0-0-0-0-----0-0-0-0-0---

Pre-Verse:
Guitar One:
e----------------------------------------------------------------------------
B----------------------------------------------------------------------------
G---------------------------------------------------------------------------- Play
D----------/5----------5/7--5----5--5/7----------/5-----------2--3----2--3---  2x
A--5--7--8-----8--7-3---------8---------5--7--8------8--7--1-------3---------
D----------------------------------------------------------------------------


Guitar Two:
e-------------------------------------------------------------------------
B-------------------------------------------------------------------------
G------------------------------------------------------------------------- Play
D-----5--7-/8--7--5----10--8-7--8--10----5--7-/8--7--5-----5--7----5--7---  2x
A--8----------------7-----------------8-----------------5-------7---------
D-------------------------------------------------------------------------

Verse:
Both Guitars:
e--------------------------------------------------------------------
B--------------------------------------------------------------------
G----------------------------------3---xxx3-xxx3-xx------------------ Play
D--0---xxx0-xxx0-xx3-3-3-3-2-2-2-2-3---xxx3-xxx3-xx3-3-3-3-2-2-2-2---  2x
A--0---xxx0-xxx0-xx3-3-3-3-2-2-2-2-1---xxx1-xxx1-xx3-3-3-3-2-2-2-2---
D--0---xxx0-xxx0-xx3-3-3-3-2-2-2-2-----------------3-3-3-3-2-2-2-2---

Chorus:
e--------------------------------------------------------------------
B--------------------------------------------------------------------
G--------------------------------------------------------------------
D--0-0-0-0-0-0-0-0-8-8-8-8-8-8-8-8-3-3-3-3-3-3-3-3-2-2-2-2-2-2-2-2---
A--0-0-0-0-0-0-0-0-8-8-8-8-8-8-8-8-3-3-3-3-3-3-3-3-2-2-2-2-2-2-2-2---
D--0-0-0-0-0-0-0-0-8-8-8-8-8-8-8-8-3-3-3-3-3-3-3-3-2-2-2-2-2-2-2-2---

e--------------------------------------------------------------------
B--------------------------------------------------------------------
G--------------------------------------------------6-6-6-6-6-6-6-6---
D--0-0-0-0-0-0-0-0-8-8-8-8-8-8-8-8-3-3-3-3-3-3-3-3-6-6-6-6-6-6-6-6---
A--0-0-0-0-0-0-0-0-8-8-8-8-8-8-8-8-3-3-3-3-3-3-3-3-4-4-4-4-4-4-4-4---
D--0-0-0-0-0-0-0-0-8-8-8-8-8-8-8-8-3-3-3-3-3-3-3-3-------------------

Guitar One:
e---------------------------------------------------------
B---------------------------------------------------------
G--------------------------------------------------------- Play
D-7---7-----7---5-----2-------2---3---3-----3---5-----2---  2x
A-7---7-----7---5-----2-------2---3---3-----3---5-----2---
D-7---7-----7---5-----2-------2---3---3-----3---5-----2---


Guitar Two:
e-------------------------------------------------------------------------
B-------------------------------------------------------------------------
G-14---14---14-14-----12----9-----9-10---10---10---10---12---14---15-14---
D--x----x----x--x------x----x-----x--x----x----x----x----x----x----x--x---
A-12---12---12-12-----10----7-----7--8----8----8----8---10---12---13-12---
D-------------------------------------------------------------------------

e------------------------------------------------------------------
B------------------------------------------------------------------
G-14---14---14-14-----12----9-----9-10---10---10---10---12-----9---
D--x----x----x--x------x----x-----x--x----x----x----x----x-----x---
A-12---12---12-12-----10----7-----7--8----8----8----8---10-----7---
D------------------------------------------------------------------

Both Guitars:
e-------------------------------------------------------------------
B-------------------------------------------------------------------
G-------------------------------------------------------------------
D-2---2-2-2-2-2-2-2-2-2-2-2-2-2-2-2-2-2-2-2-2-2-2-2-2-2-2-2-2-2-2---
A-2---2-2-2-2-2-2-2-2-2-2-2-2-2-2-2-2-2-2-2-2-2-2-2-2-2-2-2-2-2-2---
D-2---2-2-2-2-2-2-2-2-2-2-2-2-2-2-2-2-2-2-2-2-2-2-2-2-2-2-2-2-2-2---
      : : : : : : : : : : : : : : : : : : : : : : : : : : : : : :

Post Chorus:
Guitar One:
e-------------------------------------------------6---------------------------
B--------6---10---8---6-------6~\----------6---10-------10---8h10p8-----------
G---/7--------------------9-----------/7----------------------------9---10\---
D-----------------------------------------------------------------------------
A-----------------------------------------------------------------------------------|
D----------------------------------------------------------------------------- Play |
                                                                                    |
e-----------------------------------------------------------------------------  2x  |
B--------6---10---8---6---------------6---10----------6---10~\----------------------|
G---/7--------------------9\---/7--------------/9-----------------------------
D-----------------------------------------------------------------------------
A-----------------------------------------------------------------------------
D-----------------------------------------------------------------------------

Guitar Two:
e-------------------------------------------------------------------------------
B----------------------------------------------------/8-------------------------
G--------7---10---9---7----5---7~\----------7---10--------10---9h10p9------7\---
D---/7---------------------------------/7-----------------------------10--------
A-------------------------------------------------------------------------------------|
D------------------------------------------------------------------------------- Play |
                                                                                      |
e-------------------------------------------------------------------------------  2x  |
B-------------------------------------------------------------------------------------|
G--------7---10---9---7---5\----------7---10-----------7---10~\-----------------
D---/7-------------------------/8--------------/10------------------------------
A-------------------------------------------------------------------------------
D-------------------------------------------------------------------------------

Guitar Three (Overdubbing):
e-------------------------------------------------------------------
B-------------------------------------------------------------------
G-7-7-7-7-7-7-7-7-5-5-5-5-5-5-5-3---3-3-3-3-3-3-3-5-5-5-5-5-5-5-5--- Play
D-7-7-7-7-7-7-7-7-5-5-5-5-5-5-5-3---3-3-3-3-3-3-3-5-5-5-5-5-5-5-5---  4x
A-5-5-5-5-5-5-5-5-3-3-3-3-3-3-3-1---1-1-1-1-1-1-1-3-3-3-3-3-3-3-3---
D-------------------------------------------------------------------

Repeat Verse

Repeat Chorus (Play post chorus only once instead of twice)

Bridge:
e----------------------------------------------------------------------
B----------------------------------------------------------------------
G------:-:-:-:------:-:-:-:------------:-:-:-:------:-:-:-:------------ Play
D-/7---0-0-0-0-/7---0-0-0-0-/7/8\7\5---0-0-0-0-/7---0-0-0-0-/7/8\7\5---  2x
A-/7---0-0-0-0-/7---0-0-0-0-/7/8\7\5---0-0-0-0-/7---0-0-0-0-/7/8\7\5---
D-/7---0-0-0-0-/7---0-0-0-0-/7/8\7\5---0-0-0-0-/7---0-0-0-0-/7/8\7\5---

e-----------------------------------------
B-----------------------------------------
G----------------------------------------- Play
D-0-----2-----3-----------0-----7-----8---  2x
A-0-----2-----3-----------0-----7-----8---
D-0-----2-----3-----------0-----7-----8---

Time change to 3/4:
e----------------------------------------------------
B----------------------------------------------------
G---------------------------------------------------- Play
D-0-0-0-0-0-0-/7-7-7-7-5-7-8-8-8-8-8-8-3-3-3-2-2-2---  4x
A-0-0-0-0-0-0-/7-7-7-7-5-7-8-8-8-8-8-8-3-3-3-2-2-2---
D-0-0-0-0-0-0-/7-7-7-7-5-7-8-8-8-8-8-8-3-3-3-2-2-2---

Repeat Pre-Verse.

e-----
B-----
G-.---
D-0---
A-0---
D-0---

Outro/Solo:
Guitar One:
e-----------------------------------------------------15b(17)r15-15----------------------------17b(18)r17b(18)r17-
B----------------------------------------------/18------------------17-15----------18-15--------------------------
G-------------------9-/14--------------------------15---------------------14-15-17-------15-17--------------------
D-------------10-12-------15-14-12-15~---14-15--------------------------------------------------------------------
A-------8-/12-----------------------------------------------------------------------------------------------------
D-12-10-----------------------------------------------------------------------------------------------------------

e-13----------------------------------------------------15----------------------------------
B----17-------------------------18-17-13-------------17----18-17-13-------------------------
G-------15b(15.5)r15---------------------14----14-17----------------12b(13)r12--------------
D--------------------14b(15)r14-------------15---------------------------------14-15~---\---
A-------------------------------------------------------------------------------------------
D-------------------------------------------------------------------------------------------

e-------------------------------------------------------------------------------------17b(18)r17b(18)r17---
B------------------------------------17----20b(21)r20---20-17------------/18-15----------------------------
G----------------17---------------------14--------------------14h15h17----------15-17----------------------
D----------12-14----15---14---15~\-------------------------------------------------------------------------
A----------------------------------------------------------------------------------------------------------
D-12-14-15-------------------------------------------------------------------------------------------------

e-13------------------13----------------------------15---------------------------
B----15------------------15----------------------18----18-17-------17h13----15---
G-------14-15---\10---------15-14-------------17-------------17-15-------15------
D---------------------------------15-17p15h17------------------------------------
A--------------------------------------------------------------------------------
D--------------------------------------------------------------------------------

e------------17-------17-16b(17)-----\15~--------\------------------------
B--15b(16)-------15-------------------------------------------------------
G-----------------------------------------------------14-14-14-12-14-15---
D------------------------------------------------------x--x--x--x--x--x---
A-----------------------------------------------------12-12-12-10-12-13---
D-------------------------------------------------------------------------

e-----------------------------------------------------------------------
B-----------------------------------------------------------------------
G-14-14-14-14-12-10-9-9-9-9-7-9-7-7-7-7-7-7-10-10-10-12-12-12-----------
D--x--x--x--x--x--x-x-x-x-x-x-x-x-x-x-x-x-x--x--x--x--x--x--x-----------
A-12-12-12-12-10--8-7-7-7-7-5-7-5-5-5-5-5-5--8--8--8-10-10-10-----------------------|
D----------------------------------------------------------------------- Play Until |
                                                                                    |
e-----------------------------------------------------------------------  Fade Out  |
B-----------------------------------------------------------------------------------|
G-10-10-10-10-10-10-9-9-9-9-9-9-9-10-10-10-10-10-10-14-14-14-12-14-15---
D--x--x--x--x--x--x-x-x-x-x-x-x-x--x--x--x--x--x--x--x--x--x--x--x--x---
A--8--8--8--8--8--8-7-7-7-7-7-7-7--8--8--8--8--8--8-12-12-12-10-12-13---
D-----------------------------------------------------------------------

Guitar Two:
e-------------------------------------------------------------------------------------------
B-------------------------------------------------------------------------------------------
G-:::-:-:-:-----:-:-:---:::-:-:-:-----:-:-:---:::-:-:-:-----:-:-:---:::-:-:-:---:::-:-:-:--- Play
D-000-0-0-0-----0-0-0---333-3-3-3-----3-3-3---888-8-8-8-----8-8-8---333-3-3-3---222-2-2-2---  2x
A-000-0-0-0-----0-0-0---333-3-3-3-----3-3-3---888-8-8-8-----8-8-8---333-3-3-3---222-2-2-2---
D-000-0-0-0-----0-0-0---333-3-3-3-----3-3-3---888-8-8-8-----8-8-8---333-3-3-3---222-2-2-2---

e----------------------------------------------------
B----------------------------------------------------
G---------------------------------------------------- Play Until
D-0-0-0-0-0-0-/7-7-7-7-5-7-8-8-8-8-8-8-3-3-3-2-2-2---  Fade Out
A-0-0-0-0-0-0-/7-7-7-7-5-7-8-8-8-8-8-8-3-3-3-2-2-2---
D-0-0-0-0-0-0-/7-7-7-7-5-7-8-8-8-8-8-8-3-3-3-2-2-2---

Sorry if the solo's a little messed up.


Reminissions [tabbed by ThienSkater]

e|---------------------------------------------------------------------------|
B|---------------------------------------------------------------------------|
G|---------------------------------------------------------------------------|
D|-0-----------0----------00000-------0--------------------------------------|
A|-0------5--3------------00000--5--1----------------------------------------|
D|-0-3v-0--------8-7-5-3--00000----------------------------------------------|

e|---------------------------------------------------------------------------|
B|---------------------------------------------------------------------------|
G|--------------------------------2--------------------------2---------------|
D|-0-2-3-7-5-3-2-0-----0-2-5--------0-2-5-8-3-0---000---2--------------------|
A|-----------------4-5-------4-0----------------1-----5---4------------------|
E|---------------------------------------------------------------------------|

e|---------------------------------------------------------------------------|
B|---------------------------------------------------------------------------|
G|-----------------------------2-----2-7-------------------------------------|
D|-0-2-3-7-5-3-2-0-------3-------0-3-----8-----3-0-2-2---7b------------------|
A|-----------------4-5-7---4-0-------------8-5---------3---------------------|
E|---------------------------------------------------------------------------|

e|-------5----------------|
B|-------5--------10------|
G|-------9--------9-------|
D|-00-0--7--00-0--8-------|
A|-00-0-----00-0--7-------|
E|-00-0-----00-0----------|


e|---------------------------------------------------------------------------|
B|---------------------------------------------------------------------------|
G|---------------------------------------------------------------------------|2x
D|-0----3p2---0-0----3p2---8--------8--------2-5-3-2-0-2---8-x-5-10-X-7------|
A|-0-00-3p2-0-0-0-00-3p2-0-8--------8-888----3-----------3-8-x-5-10-X-7------|
E|-0-00-3p2-0-0-0-00-3p2-0-8-888-12-8-888-12---------------8-x-5-10-X-7------|

e|-----------------|
B|-----------------|
G|-----------------|
D|-0-0-0-0---------|
A|-0-0-0-0---------|
E|-0-0-0-0---------|

e|---------------------------------------------------------------------------|
B|---------------------------------------------------------------------------|
G|---------------------------------------------------------------------------|2x
D|-0----3p2---0-0----3p2---8--------8--------2-5-3-2-0-2---8-x-5-10-X-7------|
A|-0-00-3p2-0-0-0-00-3p2-0-8--------8-888----3-----------3-8-x-5-10-X-7------|
E|-0-00-3p2-0-0-0-00-3p2-0-8-888-12-8-888-12---------------8-x-5-10-X-7------|


e|-12-13------------------|
B|-16-17------------------|
G|------------------------|
D|------------------------|
A|-------00-0-000-000-----|
E|-------00-0-000-000-----|

e|---------------------------------------------------------------------------|
B|---------------------------------------------------------------------------|
G|---------------------------------------------------------------------------|
D|--0------8-----5-----10----------------------------------------------------|
A|--0------8-----5-----10----------------------------------------------------|
E|--0------8-----5-----10----------------------------------------------------|


e|-5-----------------10-----------------------------------------3--8-5-------|
B|-6---6-8-10------11---8-10-11------11--------6-5--------------6------6-----|
G|-7-------------12--------------------------5----------5/7---5-5------------|
D|-7-7---------12-----------------14---15--------------------7---------------|
A|-----------10-----------------15---------8-------3-3------8----------------|
E|---------------------------------------------------------------------------|

e|-------------------------------13-12-------------------------------------9-|
B|-/5-6-5h6p5-------8-10-11-/13-----------------------------------6-5-8-10---|
G|------------5/-7-----------------------------------------------------------|
D|-------------------------------------------15-14-12-14-15-----7------------|
A|-----------------------------------------15---------------15-8-------------|
E|--------------------------------------17-----------------------------------|

e|---------------------------------------------------------------------------|
B|---------------------------------------------------------------------------|
G|---------------------------------------------------------------------------|
D|--0-----5-----10-----3---7-----0-----5-----10----8--10---------------------|
A|--0-----5-----10-----3---7-----0-----5-----10----8--10---------------------|
E|--0-----5-----10-----3---7-----0-----5-----10----8--10---------------------|

e|---------------------------------------------------------------------------|
B|---------------------------------------------------------------------------|
G|--77-77-77-77--------------------------3----5------------------------------|
D|--77-77-77-77--88---1010--00-2-3-2-0---3----5----3-3-----------------------|
A|--55-55-55-55--88---1010-------------0-1----3----3-3-----------------------|
E|---------------88---1010-------------------------3-2-----------------------|

e|---------------------------------------------------------------------------|
B|---------------------------------------------------------------------------|
G|--------------3---5--5-2-5-7----7--9-10--9---3---7-10-15---7-9--14---------|
D|-00-2-3-2-0---3---5--5-2-5-7----------------------------------------2x-----|
A|------------0-1---3--3-0-3-5----5--7--8--7---1---5--8-13---5-7--12---------|
E|---------------------------------------------------------------------------|

e|---------------------------------------|
B|---------------------------------------|
G|-9-10/-7---9-3-------------------------|
D|-----------------0----0-0----0---------|
A|-7--8/-5---7-1---0-00-0-0-00-0---------|
E|-----------------0-00-0-0-00-0---------|

e|-1--------|
B|---3-2----|
G|----------|
D|----------|
A|----------|
E|----------|

e|--------------|
B|--------------|
G|--------------|
D|-0-1-2-3------|
A|-0-1-2-3------|
E|-0-1-2-3------|

play the rist note of every littel part stacato

e|-1-1p0---0-1---/5-3-1-0-1-3-0-/8-8p6-5-3-5-1-8-6-5-6-5-3-5-3-1-------------|
B|-------3-----3--------------------------------------------------5-3--------|
G|--------------------------------------------------------------------5------|
D|---------------------------------------------------------------------------|
A|---------------------------------------------------------------------------|
E|---------------------------------------------------------------------------|

e|---------------------------------------------------------------------------|
B|---------------------------------------------------------------------------|
G|---------------------------------------------------------------------------|
D|-00--0000--00--88-8888-88-1010-10101010-1010-33333-33333-------------------|
A|-00--0000--00--88-8888-88-1010-10101010-1010-33333-33333-------------------|
E|-00--0000--00--88-8888-88-1010-10101010-1010-33333-22222-------------------|

e|-5-----------------10-----------------------------------------3--8-5-------|
B|-6---6-8-10------11---8-10-11------11--------6-5--------------6------6-----|
G|-7-------------12--------------------------5----------5/7---5-5------------|
D|-7-7---------12-----------------14---15--------------------7---------------|
A|-----------10-----------------15---------8-------3-3------8----------------|
E|---------------------------------------------------------------------------|

e|-------------------------------13-12-------------------------------------9-|
B|-/5-6-5h6p5-------8-10-11-/13-----------------------------------6-5-8-10---|
G|------------5/-7-----------------------------------------------------------|
D|-------------------------------------------15-14-12-14-15-----7------------|
A|-----------------------------------------15---------------15-8-------------|
E|--------------------------------------17-----------------------------------|

e|---------------------------------------------------------------------------|
B|---------------------------------------------------------------------------|
G|---------------------------------------------------------------------------|
D|--0-----5-----10-----3---7-----0-----5-----10----8--10---------------------|
A|--0-----5-----10-----3---7-----0-----5-----10----8--10---------------------|
E|--0-----5-----10-----3---7-----0-----5-----10----8--10---------------------|

e|---------------------------------------------------------------------------|
B|---------------------------------------------------------------------------|
G|-14--17/15-15/14-14/12-10/-12-10/-9-10-14----------------------------------|
D|------------------------------------------2x----88888888-333333333-0-------|
A|-12--15-13-13-12-12-10--8/-10--8/-7--8-12-------88888888-333333333-0-------|
E|------------------------------------------------88888888-333333333-0-------|


Desecrate Through Reverance [tabbed by ThienSkater]



Intro:
Guitar 1:
e-----------------------------------------------------------------
B-----------------------------------------------------------------
G-----------------------------------------------------------------
D-0---0-2---3---/8---7-6---7---\3-----/5-----\2-----/8---7--------
A-----------------------------------------------------------------
D-----------------------------------------------------------------

Guitar 2:
e----------------------------------------------------------------------
B----------------------------------------------------------------------
G----------------------------------------------------------------------
D-0~-----0-2~-----2-8~-----7-6~-----6-3~-----3-5~-----5-2~-----2-8---7-
A-0~-----0-2~-----2-8~-----7-6~-----6-3~-----3-5~-----5-2~-----2-8---7-
D-0~-----0-2~-----2-8~-----7-6~-----6-3~-----3-5~-----5-2~-----2-8---7-

Both Guitars:
e----
B----
G----
D-0~-
A-0~-
D-0~-

Intro Part 2:
Guitar 1 plays lead and rhythm, Guitar 2 plays rhythm only:
e--------------------------------------------------
B--------------------------------------------------
G-:-:-:--------------------------------------------
D-0-0-0--------------------------------------------
A-0-0-0---8-0---7---0-8-5-5-8-7~-------------------------|
D-0-0-0-------8---8-------------------------------- Play |
                                                         |
e--------------------------------------------------  2x  |
B--------------------------------------------------------|
G-:-:-:---:-:---:-------------------------7---9-10-
D-0-0-0---0-0---0-------------------7-------8------
A-0-0-0---0-0---0-8-0---7---0-7-8-5---7-8----------
D-0-0-0---0-0---0-----8---8------------------------

e-------------------------------------------------------------------------------------------------
B-------------------------------------------------------------------------------------------------
G-:-:-------------------------------------------------------:-:::---------:-:::-------------------
D-0-0-3-----5-5-5-5-7-7-7-7-5-5-5-5-5-5-5-5-8-8-8-8-7-7-7-7-0-000---------0-000-------------------
A-0-0-0-----5-5-5-5-7-7-7-7-5-5-5-5-5-5-5-5-8-8-8-8-7-7-7-7-0-000---------0-000-------------------
D-0-0-0-----5-5-5-5-7-7-7-7-5-5-5-5-5-5-5-5-8-8-8-8-7-7-7-7-0-000-3b5r3b5-0-000-3b5r3b5-0-3-0-5-7-

e-------------------------------------------------------------------------------------------------
B-------------------------------------------------------------------------------------------------
G-:-:-------------------------------------------------7-6---:-:::---------:-:::---------:-:::-----
D-0-0-3-----5-5-5-5-7-7-7-7-5-5-5-5-5-5-5-5---7-8-7-------7-0-000---------0-000---------0-000-----
A-0-0-0-----5-5-5-5-7-7-7-7-5-5-5-5-5-5-5-5-:-------:-------0-000---------0-000---------0-000-----
D-0-0-0-----5-5-5-5-7-7-7-7-5-5-5-5-5-5-5-5-0-------0-------0-000-3b5r3b5-0-000-5b7r5b7-0-000-5-7-

e-------------------------------------------------------------------------------------------------
B-------------------------------------------------------------------------------------------------
G-:-:-------------------------------------------------------:-:::---------:-:::-------------------
D-0-0-3-----5-5-5-5-7-7-7-7-5-5-5-5-5-5-5-5-8-8-8-8-7-7-7-7-0-000---------0-000-------------------
A-0-0-0-----5-5-5-5-7-7-7-7-5-5-5-5-5-5-5-5-8-8-8-8-7-7-7-7-0-000---------0-000-------------------
D-0-0-0-----5-5-5-5-7-7-7-7-5-5-5-5-5-5-5-5-8-8-8-8-7-7-7-7-0-000-3b5r3b5-0-000-3b5r3b5-0-3-0-5-7-

e-----------------------------------------------------------
B-----------------------------------------------------------
G-:-:-------------------------------------------------7-6---
D-0-0-3-----5-5-5-5-7-7-7-7-5-5-5-5-5-5-5-5---7-8-7-------7-
A-0-0-0-----5-5-5-5-7-7-7-7-5-5-5-5-5-5-5-5-:-------:-------
D-0-0-0-----5-5-5-5-7-7-7-7-5-5-5-5-5-5-5-5-0-------0-------

e-------------------------------------------------------------------
B-------------------------------------------------------------------
G-------------------------------------------------------------------
D-0---Pick----0--Pick----0--Pick Slide..............----------------
A-0---Slide---0--Slide---0------------------------------------------
D-0-----------0----------0------------------------------------------

e------------------------------------------
B------------------------------------------
G-:-:-:------------------------------:---:-
D-0-0-0----------------------------0-0---0-
A-0-0-0---8-0---7---0-8-5-5-8-7~---0-0---0-
D-0-0-0-------8---8----------------0-0---0-

Verse:
Both Guitars:
e-----------------------------------------------------------------
B-----------------------------------------------------------------
G-------.---------------------------.-----.-----------------------
D-2-2-2-2-----------2-2-3-3-----2-2-2---2-2-----------2-2-3-3-3---------|
A-2-2-2-2-----------2-2-3-3-----2-2-2---2-2-----------2-2-3-3-3---      |
D-2-2-2-2-----------2-2-3-3-----2-2-2---2-2-----------2-2-3-3-3--- Play |
                                                                        |
e-----------------------------------------------------------------  2x  |
B-----------------------------------------------------------------      |
G-:---:---:-:---:---:-:-:---:-:-:-:-:-:---:-:---:---:-:-:---:-:-:-------|
D-0---0---0-0---0---0-0-0---0-0-0-0-0-0---0-0---0---0-0-0---0-0-0-
A-0---0---0-0---0---0-0-0---0-0-0-0-0-0---0-0---0---0-0-0---0-0-0-
D-0---0---0-0---0---0-0-0---0-0-0-0-0-0---0-0---0---0-0-0---0-0-0-

e---------------------------------------------------------------
B---------------------------------------------------------------
G-------.---------------------------.---------------------------
D-2-2-2-2-----------2-2-3-3-----2-2-2-----------------2-2-3-3-3-
A-2-2-2-2-----------2-2-3-3-----2-2-2---*-------------2-2-3-3-3-
D-2-2-2-2-----------2-2-3-3-----2-2-2---0w------------2-2-3-3-3-

e-----------------------------------------------------------------
B-----------------------------------------------------------------
G-:---:---:-:---:---:-:-:---:-:-:-:-:-:---:-:---:---:-:-:---:-:-:-
D-0---0---0-0---0---0-0-0---0-0-0-0-0-0---0-0---0---0-0-0---0-0-0-
A-0---0---0-0---0---0-0-0---0-0-0-0-0-0---0-0---0---0-0-0---0-0-0-
D-0---0---0-0---0---0-0-0---0-0-0-0-0-0---0-0---0---0-0-0---0-0-0-

e---------------------------------------------------------------
B---------------------------------------------------------------
G-------.---------------------------.-----.---------------------
D-2-2-2-2-----------2-2-3-3-----2-2-2---2-2-----------2-2-3-3-3-
A-2-2-2-2-----------2-2-3-3-----2-2-2---2-2-----------2-2-3-3-3-
D-2-2-2-2-----------2-2-3-3-----2-2-2---2-2-----------2-2-3-3-3-

e--------------------------------------------------------------------
B--------------------------------------------------------------------
G-.---::::::---.---.---::::::---.---.---::::::---.---.---------------
D-0---000000-0-0---0---000000-0-0---0---000000-0-0---0---------------
A-0---000000-0-0---0---000000-0-0---0---000000-0-0---0---------------
D-0---000000-0-0---0---000000-0-0---0---000000-0-0---0---3-2-0-5-6-7-

e--------------------------------------------------------------------
B--------------------------------------------------------------------
G-.---::::::---.---.---::::::---.---.---::::::---.---.---------------
D-0---000000-0-0---0---000000-0-0---0---000000-0-0---0---------------
A-0---000000-0-0---0---000000-0-0---0---000000-0-0---0---------------
D-0---000000-0-0---0---000000-0-0---0---000000-0-0---0---8-7-5---7-8-

Chorus:
(Both Guitars)
e-----------------------------------------------------------------
B-----------------------------------------------------------------
G-----------------------------------------------------------------
D-7-7-7-7-7-7-7-7-5-5-5-5-5-5-5-5-0-0-0-0-0-0-0-0-0-0-0-0-0-0-0-0-
A-8-8-8-8-8-8-8-8-7-7-7-7-7-7-7-7-0-0-0-0-0-0-0-0-0-0-0-0-0-0-0-0-
D-7-7-7-7-7-7-7-7-5-5-5-5-5-5-5-5-0-0-0-0-0-0-0-0-0-0-0-0-0-0-0-0-

e-----------------------------------------------------------------
B-----------------------------------------------------------------
G-----------------------------------------------------------------
D-8--8--8--8--7-7-7-7-5-5-5-5-5-5-5-5-5-5-5-5-5-5-5-5-5-5-5-5-----
A-10-10-10-10-8-8-8-8-7-7-7-7-7-7-7-7-7-7-7-7-7-7-7-7-7-7-7-8-----
D-8--8--8--8--7-7-7-7-5-5-5-5-5-5-5-5-5-5-5-5-5-5-5-5-5-5-5-5-----

e-----------------------------------------------------------------
B-----------------------------------------------------------------
G-.---::::::---.---.---::::::---.---.---::::::---.---::::::::::::-
D-0---000000-0-0---0---000000-0-0---0---000000-0-0---000000000000-
A-0---000000-0-0---0---000000-0-0---0---000000-0-0---000000000000-
D-0---000000-0-0---0---000000-0-0---0---000000-0-0---000000000000-

e-----------------------------------------------------------------
B-----------------------------------------------------------------
G-----------------------------------------------------------------
D-7-7-7-7-7-7-7-7-5-5-5-5-5-5-5-5-0-0-0-0-0-0-0-0-0-0-0-0-0-0-0-0-
A-8-8-8-8-8-8-8-8-7-7-7-7-7-7-7-7-0-0-0-0-0-0-0-0-0-0-0-0-0-0-0-0-
D-7-7-7-7-7-7-7-7-5-5-5-5-5-5-5-5-0-0-0-0-0-0-0-0-0-0-0-0-0-0-0-0-

e-----------------------------------------------------------------
B-----------------------------------------------------------------
G-----------------------------------------------------------------
D-8--8--8--8--7-7-7-7-5-5-5-5-5-5-5-5-5-5-5-5-5-5-5-5-5-5-5-5-----
A-10-10-10-10-8-8-8-8-7-7-7-7-7-7-7-7-7-7-7-7-7-7-7-7-7-7-7-8-----
D-8--8--8--8--7-7-7-7-5-5-5-5-5-5-5-5-5-5-5-5-5-5-5-5-5-5-5-5-----

e-----------------------------------------------------------------
B-----------------------------------------------------------------
G-.---::::::---.---.---::::::---.---.---::::::---.---.--.----.----
D-0---000000-0-0---0---000000-0-0---0---000000-0-0---0--0--0-0----
A-0---000000-0-0---0---000000-0-0---0---000000-0-0---0--0--0-0----
D-0---000000-0-0---0---000000-0-0---0---000000-0-0---0--0--0-0----

Repeat verse and chorus

Bridge:
Guitar 1:
e------------------------------------------------------------------------------
B------------------------------------------------------------------------------
G-10--7-9-10-9--5-7-9-7-----10-12--10--9---9--10--12-10----7--9--10--12--10--9-
D------------------------------------------------------------------------------ Play
A------------------------------------------------------------------------------  2x
D------------------------------------------------------------------------------

Guitar 2:
e------------------------------------------------------------------------------
B-10--6-8-10-8--5-6-8-6-----10-11--10--8---8--10--11-10----6--8--10--11--10--8-
G------------------------------------------------------------------------------ Play
D------------------------------------------------------------------------------  2x
A------------------------------------------------------------------------------
D------------------------------------------------------------------------------

Guitar 3 (Overdubbed):
e-------------------------------------------------------------------------
B-------------------------------------------------------------------------
G-------------------------------------------------------------------------
D-7-7-7-7-7-7-7-7-5-5-5-5-5-5-5-5-0-0-0-0-0-0-0-0-0-0-0-0-0-0-0-0---------
A-8-8-8-8-8-8-8-8-7-7-7-7-7-7-7-7-0-0-0-0-0-0-0-0-0-0-0-0-0-0-0-0---------------|
D-7-7-7-7-7-7-7-7-5-5-5-5-5-5-5-5-0-0-0-0-0-0-0-0-0-0-0-0-0-0-0-0---------      |
                                                                                |
e-------------------------------------------------------------------------      |
B-------------------------------------------------------------------------      |
G------------------------------------------------------------------------- Play |
D-8--8--8--8--7-7-7-7-5-5-5-5-5-5-5-5-5-5-5-5-5-5-5-5-5-5-5-5-0-----------  2x  |
A-10-10-10-10-8-8-8-8-7-7-7-7-7-7-7-7-7-7-7-7-7-7-7-7-7-7-7-8-0-----------      |
D-8--8--8--8--7-7-7-7-5-5-5-5-5-5-5-5-5-5-5-5-5-5-5-5-5-5-5-5-0-----------      |
                                                                                |
e-------------------------------------------------------------------------      |
B-------------------------------------------------------------------------------|
G-------------------------------------------------------------------------
D-0-0-0-0-0-0-0-0-0-0-0-0-0-0-0-0-8-8-8-8-8-8-8-8-10-10-10-10-10-10-10-10-
A-0-0-0-0-0-0-0-0-0-0-0-0-0-0-0-0-8-8-8-8-8-8-8-8-10-10-10-10-10-10-10-10-
D-0-0-0-0-0-0-0-0-0-0-0-0-0-0-0-0-8-8-8-8-8-8-8-8-10-10-10-10-10-10-10-10-

Guitar 1:
e-----------------------------------------------------------------
B-----------------------------------------------------------------
G-:-:---------:-:-----------------:-:----------------------------- Play
D-0-0---------0-0-----------------0-0-----------------------------  4x
A-0-0-8---7---0-0-10--8---7---8---0-0-8---7---10--8---7---8---3---
D-0-0---------0-0-----------------0-0-----------------------------

Guitar 2:
e-----------------------------------------------------------------
B-----------------------------------------------------------------
G-:-:---------:-:-----------------:-:----------------------------- Play
D-0-0-7---5---0-0-8---7---5---7---0-0-7---5---8---7---5---7---2---  4x
A-0-0---------0-0-----------------0-0-----------------------------
D-0-0---------0-0-----------------0-0-----------------------------

Outro
e-----------------------------------------------------------------
B-----------------------------------------------------------------
G-7~------5~--------------------------:-:-:-:-:-:-:-:-:-:-:-:-:-:-
D-7~------5~------0~--------------3---3-3-3-3-3-3-7-7-7-7-7-7-7-7-
A-5~------3~------0~--------------3---3-3-3-3-3-3-7-7-7-7-5-5-5-5-
D-----------------0~--------------3---3-3-3-3-3-3-7-7-7-7-7-7-7-7-

Guitar 1:
e-------------------------------------------------------------------------
B-------------------------------------------------------------------------
G-10-10-10-10-10-10-10-10-9-9-9-9-9-9-9-9-9-9-9-9-9-9-9-9-7-7-7-7-7-7-7-7-
D--x--x--x--x--x--x--x--x-x-x-x-x-x-x-x-x-x-x-x-x-x-x-x-x-x-x-x-x-x-x-x-x-------|
A--8--8--8--8--8--8--8--8-7-7-7-7-7-7-7-7-7-7-7-7-7-7-7-7-5-5-5-5-5-5-5-5-      |
D------------------------------------------------------------------------- Play |
                                                                                |
e-------------------------------------------------------------------------  2x  |
B-------------------------------------------------------------------------      |
G-10-10-10-10-10-10-10-10-9-9-9-9-9-9-9-9-5-5-5-5-5-5-5-5-6-6-6-6-6-6-6-6-------|
D--x--x--x--x--x--x--x--x-x-x-x-x-x-x-x-x-x-x-x-x-x-x-x-x-x-x-x-x-x-x-x-x-
A--8--8--8--8--8--8--8--8-7-7-7-7-7-7-7-7-3-3-3-3-3-3-3-3-4-4-4-4-4-4-4-4-
D-------------------------------------------------------------------------

e-----------------------------------------------------------------
B-3~------------------------------6~------------------------------
G-2~------------------------------5~------------------------------
D-0~------------------------------3~------------------------------
A-----------------------------------------------------------------
D-----------------------------------------------------------------

e---------------------------------------------------------------------------------
B---------------------------------------------------------------------------------
G-10-10-10-10-10-10-10-10-10-10-10-10-10-10-10-10-5-5-5-5-5-5-5-5-6-6-6-6-6-6-6-6-
D--x--x--x--x--x--x--x--x--x--x--x--x--x--x--x--x-x-x-x-x-x-x-x-x-x-x-x-x-x-x-x-x-
A--8--8--8--8--8--8--8--8--8--8--8--8--8--8--8--8-3-3-3-3-3-3-3-3-4-4-4-4-4-4-4-4-
D---------------------------------------------------------------------------------

e-----------------------------------------------------------------
B-----------------------------------------------------------------
G-2-2-2-2-2-2-2-2-2-2-2-2-2-2-2-2-9-9-9-9-9-9-9-9-9-9-9-9-9-9-9-9-
D-x-x-x-x-x-x-x-x-x-x-x-x-x-x-x-x-x-x-x-x-x-x-x-x-x-x-x-x-x-x-x-x-
A-0-0-0-0-0-0-0-0-0-0-0-0-0-0-0-0-7-7-7-7-7-7-7-7-7-7-7-7-7-7-7-7-
D-----------------------------------------------------------------

e-----------------------------------------------------------------
B-----------------------------------------------------------------
G-10-10-10-10-10-10-10-10-10-10-10-10-10-10-10-10-5-5-5-5-5-5-5-5-6-6-6-6-6-6-6-6-
D--x--x--x--x--x--x--x--x--x--x--x--x--x--x--x--x-x-x-x-x-x-x-x-x-x-x-x-x-x-x-x-x-
A--8--8--8--8--8--8--8--8--8--8--8--8--8--8--8--8-3-3-3-3-3-3-3-3-4-4-4-4-4-4-4-4-
D-----------------------------------------------------------------

Guitar 2:
e-----------------------------------------------------------------
B-----------------------------------------------------------------
G-----------------------------------------------------------------
D-7-7-7-7-7-7-7-7-5-5-5-5-5-5-5-5-5-5-5-5-5-5-5-5-0-0-0-0-0-0-0-0-------|
A-8-8-8-8-8-8-8-8-7-7-7-7-7-7-7-7-7-7-7-7-7-7-7-7-0-0-0-0-0-0-0-0-      |
D-7-7-7-7-7-7-7-7-5-5-5-5-5-5-5-5-5-5-5-5-5-5-5-5-0-0-0-0-0-0-0-0- Play |
                                                                        |
e-----------------------------------------------------------------  2x  |
B-----------------------------------------------------------------      |
G-----------------------------------------------------------------------|
D-0-0-0-0-0-0-0-0-5-5-5-5-5-5-5-5-3-3-3-3-3-3-3-3-7-7-7-7-7-7-7-7-
A-0-0-0-0-0-0-0-0-5-5-5-5-5-5-5-5-3-3-3-3-3-3-3-3-8-8-8-8-8-8-8-8-
D-0-0-0-0-0-0-0-0-5-5-5-5-5-5-5-5-3-3-3-3-3-3-3-3-7-7-7-7-7-7-7-7-

e----------------------------------------------------------------
B----------------------------------------------------------------
G----------------------------------------------------------------
D-0~------------------------------3~-----------------------------
A-0~------------------------------3~-----------------------------
D-0~------------------------------3~-----------------------------

e-----------------------------------------------------------------
B-----------------------------------------------------------------
G-----------------------------------------------------------------
D-8-8-8-8-8-8-8-8-8-8-8-8-8-8-8-8-3-3-3-3-3-3-3-3-7-7-7-7-7-7-7-7-
A-8-8-8-8-8-8-8-8-8-8-8-8-8-8-8-8-3-3-3-3-3-3-3-3-5-5-5-5-5-5-5-5-
D-8-8-8-8-8-8-8-8-8-8-8-8-8-8-8-8-3-3-3-3-3-3-3-3-7-7-7-7-7-7-7-7-

e-----------------------------------------------------------------
B-----------------------------------------------------------------
G-----------------------------------------------------------------
D-0-0-0-0-0-0-0-0-0-0-0-0-0-0-0-0-7-7-7-7-7-7-7-7-7-7-7-7-7-7-7-7-
A-0-0-0-0-0-0-0-0-0-0-0-0-0-0-0-0-7-7-7-7-7-7-7-7-7-7-7-7-7-7-7-7-
D-0-0-0-0-0-0-0-0-0-0-0-0-0-0-0-0-7-7-7-7-7-7-7-7-7-7-7-7-7-7-7-7-

e---------------------------------------------------------------
B---------------------------------------------------------------
G---------------------------------------------------------------
D-7-7-7-7-7-7-7-7-7-7-7-7-7-7-7-7-3-3-3-3-3-3-3-3-2-2-2-2-2-2-2-
A-7-7-7-7-7-7-7-7-7-7-7-7-7-7-7-7-3-3-3-3-3-3-3-3-0-0-0-0-0-0-0-
D-7-7-7-7-7-7-7-7-7-7-7-7-7-7-7-7-3-3-3-3-3-3-3-3-2-2-2-2-2-2-2-

Both guitars:
e----------------------------------------------------------------
B----------------------------------------------------------------
G-.---::::::---.---.---::::::---.---.---::::::---.---.--.----.---
D-0---000000-0-0---0---000000-0-0---0---000000-0-0---0--0--0-0---
A-0---000000-0-0---0---000000-0-0---0---000000-0-0---0--0--0-0---
D-0---000000-0-0---0---000000-0-0---0---000000-0-0---0--0--0-0---


Eternal Rest [tabbed by ThienSkater w/ edits from funeralforafrie]
Note: Missing lead part in intro I'm trying to work that out aswell
I'll add it on afterwords.

Part 1 (0:00)
e----------------------------------------------------------------|
B-----:::-----------------------:::------------------------      |
G-5---555-5-5-----------------5-555-5---::::::::::::::::--- Play |
D-5---555-5-5---1-3---3-1-3---5-555-5---1111333344443333---  2x  |
A-3---333-3-3---1-3---3-1-3---3-333-3---1111333344443333---      |
D---------------1-3---3-1-3-------------1111333344443333---      |Play
                                                                 |
e----------------------------------------------------------      | 2x
B-----:::-----------------------:::------------------------      |
G-7---777-7-7-----------------7-777-7---::::::::::::::::--- Play |
D-7---777-7-7---3-5---5-3-5---7-777-7---3333555566665555---  2x  |
A-5---555-5-5---3-5---5-3-5---5-555-5---3333555566665555---      |
D---------------3-5---5-3-5-------------3333555566665555---------|

Part 2 (0:40):
Guitar One:
e------
B------
G------
D-0~---
A-0~---
D-0~---

e----------------------------------------
B----------------------------------------
G----.---.-------------.----------------- Play
D-/3-0---0---0-/3-0-/3-0---0-/3-0-/6-\---  4x
A-/3-0---0---0-/3-0-/3-0---0-/3-0-/6-\---
D-/3-0---0---0-/3-0-/3-0---0-/3-0-/6-\---

Guitar Two:
e------
B------
G------
D-0~---
A-0~---
D-0~---

e---------------------------------------------------------
B---------------------------------------------------------
G-:-:-:-:-:-:-:-:-:-:-:-:-:-:-:-:-:-:-:-:-:-:-:-:-:-:-:--- Pick
D-0-0-0-0-0-0-0-0-0-0-0-0-0-0-0-0-0-0-0-0-0-0-0-0-0-0-0--- Slide
A-0-0-0-0-0-0-0-0-0-0-0-0-0-0-0-0-0-0-0-0-0-0-0-0-0-0-0---
D-0-0-0-0-0-0-0-0-0-0-0-0-0-0-0-0-0-0-0-0-0-0-0-0-0-0-0---

Both Guitars:
e----------------------------------------
B----------------------------------------
G----.---.-------------.----------------- Play
D-/3-0---0---0-/3-0-/3-0---0-/3-0-/6-\---  4x
A-/3-0---0---0-/3-0-/3-0---0-/3-0-/6-\---
D-/3-0---0---0-/3-0-/3-0---0-/3-0-/6-\---

Part 3 (1:15):
e------------------------------------------
B------------------------------------------
G-:-:-:-.-------:-:-.---:-:-.---.---------- Play
D-0-0-0-0-------0-0-0---0-0-5---3---3-h5---  4x
A-0-0-0-0-------0-0-0---0-0-5---3---3-h5---
D-0-0-0-0-------0-0-0---0-0-5---3---3-h5---

Part 4 (1:32):
Guitar One:
e----------------------------------------------------------------------
B----------------------------------------------------------------------
G-----7-6~-----6-7-/9~---7-9-10-9~-------7-6~-----6-7-/9~---6-7-9------
D---7----------------------------------7--------------------------7~---
A-5----------------------------------5---------------------------------
D----------------------------------------------------------------------

Guitar Two:
e----------------------------------------------------------------------
B-----6-5~-----5-6-/8~---6-8-10-8~-------6-5~-----5-6-/8~---5-6-8------
G-----------------------------------------------------------------6~---
D---7----------------------------------7-------------------------------
A-5----------------------------------5---------------------------------
D----------------------------------------------------------------------

Guitar Three (Overdubbed):
e-----------------------------------------
B-----------------------------------------
G-:-:-:-.-------:-:-.---:-:-.---.-----.--- Play
D-0-0-0-0-------0-0-0---0-0-0---0---0-0---  4x
A-0-0-0-0-------0-0-0---0-0-0---0---0-0---
D-0-0-0-0-------0-0-0---0-0-0---0---0-0---

Both Guitars:
Time Change to 3/4
e---------------------------
B---------------------------
G-:-:-:-:-:-:-:-:-:-:-:-:---
D-0-0-0-0-0-0-0-0-0-0-0-0---
A-0-0-0-0-0-0-0-0-0-0-0-0---
D-0-0-0-0-0-0-0-0-0-0-0-0---

Part 5 (1:43)
Добавлено: 29.04.2012
Другие материалы по этой песне:
  • Аккорды и текст

Страница создана 23.04.2012
http://primanota.ru/avenged-sevenfold/waking-the-fallen-album-chords.htm
Привет, Гость.
Предлагаем пройти революционный курс по гитаре.
Подарок от PrimaNota.Ru, забирай!