PrimaNota.ru - самый крупный в мире бесплатный архив песенных текстов, аккордов, табулатур и нот


Attila - Sex Drugs Violence - таба, видео

Регистрация Запомнить меня
Войти через:  Facebook Google Twitter Vk Yandex Mail.ru

Attila - Sex Drugs Violence - таба, видео

Печатать
Просмотров: 204
Artist - Attila
Song - Sex, Drugs & Violence
Album - Outlawed
Tabbed by - Pete_KC

*TUNNING* :  C# Standard

    Guitar 1
C#||---------------------------|---------------------------|
G#||---------------------------|---------------------------|
E ||---------------------------|---------------------------|
B ||---------------------------|---------------------------|
F#||--2--2-----------2--2------|--------2--2--2-2-2--2--2--|
C#||--1--1--/5----4--1--1--/5--|-----4--1--1--1-1-1--1--1--|
pm||  -  -           -  -               -  -  - - -  -  - 
  ||Guitar 2
C#||---------------------------|---------------------------|
G#||---------------------------|---------------------------|
E ||---------------------------|---------------------------|
B ||---------------------------|---------------------------|
F#||--2--2-----------2--2------|--------2--2--2-2-2--2--2--|
C#||--1--1-----------1--1------|--------1--1--1-1-1--1--1--|
 pm   -  -           -  -               -  -  - - -  -  - 

 Guitar 1
|---------------------------|-----------------------------|
|---------------------------|-----------------------------|
|---------------------------|-----------------------------|
|---------------------------|-----------------------------|
|--2--2-----------2--2------|--------2-2-2--2-2-2--2-2-2--|
|--1--1--/5----4--1--1--/5--|-----4--0-0-0--0-0-0--0-0-0--|
|  -  -           -  -               - - -  - - -  - - -
|Guitar 2
|---------------------------|-----------------------------|
|---------------------------|-----------------------------|
|---------------------------|-----------------------------|
|---------------------------|-----------------------------|
|--2--2-----------2--2------|--------2-2-2--2-2-2--2-2-2--|
|--1--1-----------1--1------|--------0-0-0--0-0-0--0-0-0--|
   -  -           -  -               - - -  - - -  - - -

 Guitar 1
|---------------------------|---------------------------|
|---------------------------|---------------------------|
|---------------------------|---------------------------|
|---------------------------|---------------------------|
|--2--2-----------2--2------|--------2--2--2-2-2--2--2--|
|--1--1--/5----4--1--1--/5--|-----4--1--1--1-1-1--1--1--|
|  -  -           -  -               -  -  - - -  -  - 
|Guitar 2
|---------------------------|---------------------------|
|---------------------------|---------------------------|
|---------------------------|---------------------------|
|---------------------------|---------------------------|
|--2--2-----------2--2------|--------2--2--2-2-2--2--2--|
|--1--1-----------1--1------|--------1--1--1-1-1--1--1--|
   -  -           -  -               -  -  - - -  -  - 

 Guitar 1
|--------------------------|
|--------------------------|
|--------------------------|
|--------------------------|
|--2--2-----------2--2--2--|
|--1--1--/5----4--1--1--1--|
|  -  -           -  -  -
|Guitar 2
|--------------------------|
|--------------------------|
|--------------------------|
|--------------------------|
|--2--2-----------2--2--2--|
|--1--1-----------1--1--1--|
   -  -           -  -  -

I SAID I NEVER GAVE A FUCK!!

 Guitar 1 & 2 (2x)
|---------------------------|---------------------------|
|---------------------------|---------------------------|
|---------------------------|---------------------------|
|---------------------------|---------------------------|
|--1--1-----------1--1------|--------1--1--1-1-1--1--1--|
|--0--0--/4----3--0--0--/4--|-----3--0--0--0-0-0--0--0--|
|  -  -           -  -               -  -  - - -  -  - 
|
|---------------------------|----------------------------|
|---------------------------|----------------------------|
|---------------------------|----------------------------|
|---------------------------|----------------------------|
|--1--1-----------1--1------|--------2-2-2--2-2-2--2-2-2-|
|--0--0--/4----3--0--0--/4--|-----3--0-0-0--0-0-0--0-0-0-|
   -  -           -  -               - - -  - - -  - - - 


 Guitar 1  
|---------------------------|------------------------------|
|---------------------------|------------------------------|
|---------------------------|------------------------------|
|------------------------2--|------------------------------|
|--2--2--2--2--2--2--2-2-2--|--2--2--2--2--2-2-2-2-2-2-2-2-|
|--0--0--0--0--0--0--0-0-0--|--0--0--0--0--0-0-0-0-0-0-0-0-|
|  -  -  -  -  -  -  - -       -  -  -  -  - - - - - - - -
|Guitar 2
|---------------------------|------------------------------|
|---------------------------|------------------------------|
|---------------------------|------------------------------|
|------------------------2--|------------------------------|
|--2--2--------------2-2-2--|--------------2-2-2-2-2-2-2-2-|
|--0--0--------------0-0-0--|--------------0-0-0-0-0-0-0-0-|
   -  -              - -                   - - - - - - - -

 Guitar 1
|---------------------------|---------------------------|
|---------------------------|---------------------------|
|---------------------------|---------------------------|
|---------------------------|---------------------------|
|--2--2-----------2--2------|--------2--2--5------------|
|--1--1--/5----4--1--1--/5--|-----4--1--1-----1--3b*----|
|  -  -           -  -               -  -   
|Guitar 2
|---------------------------|---------------------------|
|---------------------------|---------------------------|
|---------------------------|---------------------------|
|---------------------------|---------------------------|
|--2--2-----------2--2------|--------2--2---------------|
|--1--1-----------1--1------|--------1--1---------------|
   -  -           -  -               -  -  

 Guitar 1
|---------------------------|------------------------------|
|---------------------------|------------------------------|
|---------------------------|------------------------------|
|------------------------2--|------------------------------|
|--2--2--------------2-2-2--|--------------2-2-2-2-2-2-2-2-|
|--0--0--------------0-0-0--|--------------0-0-0-0-0-0-0-0-|
|  -  -              - -                   - - - - - - - -
|Guitar 2  
|---------------------------|------------------------------|
|---------------------------|------------------------------|
|---------------------------|------------------------------|
|------------------------2--|------------------------------|
|--2--2--2--2--2--2--2-2-2--|--2--2--2--2--2-2-2-2-2-2-2-2-|
|--0--0--0--0--0--0--0-0-0--|--0--0--0--0--0-0-0-0-0-0-0-0-|
   -  -  -  -  -  -  - -       -  -  -  -  - - - - - - - -

 Guitar 1
|---------------------------|--------------2h3p2p0------|
|---------------------------|----------------------4--5-|
|---------------------------|---------------------------|
|---------------------------|---------------------------|
|--2--2-----------2--2------|--------2--2---------------|
|--1--1-----------1--1------|--------1--1---------------|
|  -  -           -  -               -  -  
|Guitar 2
|---------------------------|---------------------------|
|---------------------------|---------------------------|
|---------------------------|---------------------------|
|---------------------------|---------------------------|
|--2--2-----------2--2------|--------2--2---------------|
|--1--1--/5----4--1--1--/5--|-----4--1--1---------------|
   -  -           -  -               -  -   

 Guitar 1             let ring ------------------|                    
|----------------------|------------0--------0-------|
|----------------------|-----------------------------|
|--6------10------9----|---------9-----9--8----------|
|--6------10------9----|-----10-----------------9----|
|--4-------8------7----|-----------------------------|
|--4-------8------7----|-----------------------------|
|
|Guitar 2
|----------------------|-----------------------------|
|----------------------|-----------------------------|
|--6------10------9----|-----------------------------|
|--6------10------9----|-----------------------------|
|--4-------8------7----|---------------------2--2----|
|--4-------8------7----|---------------------0--0----|
                                             -  -
                          
 Guitar 1
|---------------------|-----------------------------|
|---------------------|-----------------------------|
|--3------2------6----|-----------------------------|
|--3------2------6----|-----------------------------|
|--1------0------4----|-----2--2--2-----------------|
|--1------0------4----|-----0--0--0-----------------|
|                           -  -  -
|Guitar 2
|---------------------|---------------2h3p2p0-------|
|---------------------|------------------------4----|
|--3------2------6----|---------------------------5-|
|--3------2------6----|-----------------------------|
|--1------0------4----|-----2--2--2-----------------|
|--1------0------4----|-----0--0--0-----------------|
                            -  -  -

 Guitar 1
|----------------------|-----------------------------|
|----------------------|-----------------------------|
|--6------10------9----|-----------------------------|
|--6------10------9----|-----------------------------|
|--4-------8------7----|---------------------2--2----|
|--4-------8------7----|---------------------0--0----|
|                                            -  -
|Guitar 2             let ring ------------------|                    
|----------------------|------------0--------0-------|
|----------------------|-----------------------------|
|--6------10------9----|---------9-----9--8----------|
|--6------10------9----|-----10-----------------9----|
|--4-------8------7----|-----------------------------|
|--4-------8------7----|-----------------------------|

 Guitar 1
|---------------------|---------------2h3p2p0-------|
|---------------------|------------------------4----|
|--3------2------6----|---------------------------5-|
|--3------2------6----|-----------------------------|
|--1------0------4----|-----2--2--2-----------------|
|--1------0------4----|-----0--0--0-----------------|
|                           -  -  -
|Guitar 2
|---------------------|-----------------------------|
|---------------------|-----------------------------|
|--3------2------6----|-----------------------------|
|--3------2------6----|-----------------------------|
|--1------0------4----|-----2--2--2-----------------|
|--1------0------4----|-----0--0--0-----------------|
                            -  -  -
WE'RE ALL ETERNALLY FUCKED!!

 Guitar 1 & 2 (2X)
 3/4    
|-----------------------------|---------------------------|
|-----------------------------|---------------------------|
|-----------------------------|---------------------------|
|-----------------------------|---------------------------|
|-----------------------------|---------------------------|
|--0--0----0----0----0--0-----|--0--0----0----0----0--0---|
|  -  -    -    -    -           -  -    -    -    -    
|
|2/4                     3/4
|-----------------------|---------------------------|
|-----------------------|---------------------------|
|-----------------------|---------------------------|
|-----------------------|---------------------------|
|-----------------------|---------------------------|
|--0--0--0--0--0--0-----|--0--0----0----0----0--0---|
|  -  -  -  -  -  -        -  -    -    -    -
|
|                              2/4
|-----------------------------|---2h3p2p0-----------|
|-----------------------------|------------4--5-----|
|-----------------------------|---------------------|
|-----------------------------|---------------------|
|-----------------------------|---------------------|
|--0--0----0----0----0--1b----|---------------------|
   -  -    -    -    -

 4/4
|---------------|
|---------------|
|---------------|
|---------------|
|--2--2---------|
|--0--0---------|
   -  -

AND IF YOU NEVER GAVE A FUCK!

 Guitar 1
|---------------------------|-----------------------------| |
|---------------------------|-----------------------------| |
|---------------------------|-----------------------------| |
|---------------------------|-----------------------------| |
|--1--1-----------1--1------|--------1--1--1-1-1--1--1----| |
|--0--0--/4----3--0--0--/4--|-----3--0--0--0-0-0--0--0----| |
|  -  -           -  -               -  -  - - -  -  -      |
|Guitar 2                                                   |
|---------------------------|-----------------------------| |
|---------------------------|-----------------------------| |
|---------------------------|-----------------------------| |
|---------------------------|-----------------------------| |
|--1--1-----------1--1------|--------1--1--1-1-1--1--1----| |
|--0--0--/4----3--0--0--/4--|-----3--0--0--0-0-0--0--0----| |
   -  -           -  -               -  -  - - -  -  -      |
                                                           4X
 Guitar 1                                                   |
|---------------------------|-----------------------------| |
|---------------------------|-----------------------------| |
|--------7\-5/-8--------7\--|--5/-8-----------------------| |
|--------x--x--x--------x---|--x--x--------4h5p4----------| |
|--3--3--5\-3/-6--6--6--5\--|--3/-6--6--6--------7-6--7---| |
|--1--1-----------4--4------|--------4--4-----------------| |
|  -  -           -  -               -  -                   |
|Guitar 2                                                   |
|---------------------------|-----------------------------| |
|---------------------------|-----------------------------| |
|--------7\-5/-8--------7\--|--5/-8--------2h4p2p0--------| |
|--------x--x--x--------x---|--x--x----------------4--5---| |
|--3--3--5\-3/-6--6--6--5\--|--3/-6--6--6-----------------| |
|--1--1-----------4--4------|--------4--4-----------------| |
   -  -           -  -               -  -

 Guitar 1 & 2
|------------|------------|------------|------------|
|------------|------------|------------|------------|
|------------|------------|------------|------------|
|--2---------|------------|------------|------------|
|--2---------|------------|------------|------------|
|--0---------|------------|------------|------------|

JUMP!

 Guitar 1 & 2
|---------------------------------------|
|---------------------------------------|
|---------------------------------------|
|---------------------------------------|
|---------------------------------------|
|--0--0--12-0--0-10-12-10-13-12-10-0-12-|
|
|---------------------------------------|
|---------------------------------------|
|---------------------------------------|
|---------------------------------------|
|---------------------------------------|
|-0--0--12-0--0-3--5--3--6--5--3--0--5--|
|               -  -  -  -  -  -  -  -
|---------------------------------------|
|---------------------------------------|
|---------------------------------------|
|---------------------------------------|
|---------------------------------------|
|--0--0--12-0--0-10-12-10-13-12-10-0-12-|
|                
|---------------------------------------|
|---------------------------------------|
|---------------------------------------|Tremolo picking from the
|---------------------------------------|3rd fret to the 5th while
|-----------------Natural-Harmonics-----|lightly touching the
|--0--0--12-0--0-3*////////5*-----------|string
|
|---------------------------------------|
|---------------------------------------|
|---------------------------------------|
|---------------------------------------|
|---------------------------------------|
|--0--0--12-0--0-10-12-10-13-12-10-0-12-|\
|                                        2X
|---------------------------------------|/
|---------------------------------------|
|---------------------------------------|
|---------------------------------------|
|---------------------------------------|
|-0--0--12-0--0-3--5--3--6--5--3--0--5--|
                -  -  -  -  -  -  -  -
 
 Guitar 1 & 2
|----------------------|----------------------------|
|----------------------|----------------------------|
|----------------------|----------------------------|
|----------------------|----------------------------|
|--2-------2-----------|----2--2-2-----2-2--2-2-2---|
|--0-------0-----------|----0--0-0-----0-0--0-0-0---|
|  -       -                -  - -     - -  - - -
|----------------------|--------------------|
|----------------------|--------------------|
|----------------------|--------------------|
|----------------------|--------------------|   Down tune the E
|--2-------2-----------|--------------------|   string to a C while
|--0-------0-----------|--0--0--0-0--0--0---|<- playing that part
|  -       -
|----------------------|----------------------------|
|----------------------|----------------------------|
|----------------------|----------------------------|
|----------------------|----------------------------|
|--2-------2-----------|----2--2-2-----2-2--2-2-2---|
|--1-------1-----------|----1--1-1-----1-1--1-1-1---|
|  -       -                -  - -     - -  - - -
|----------------------|--------------------|
|----------------------|--------------------|
|----------------------|--------------------|
|----------------------|--------------------|   Again,down tune the E
|--2-------2-----------|--------------------|   string to a B while
|--1-------1-----------|--0--0--0-0--0--0---|<- playing that part
   -       -   

Now your guitar is tuned drop B
(Slower tempo)
|------------------------|-----------------------|
|------------------------|-----------------------|
|------------------------|-----------------------|
|------------------------|-----------------------|2X
|---0---0---0-----0---0--|--0-----0-0--0-0--0-0--|
|---1---1---1-----1---1--|--1-----1-1--1-1--1-1--|
|   -   -   -     -   -     -     - -  - -  - -
|------------------------|-----------------------|
|------------------------|-----------------------|
|------------------------|-----------------------|
|------------------------|-----------------------|
|------------------------|-----------------------|
|---1---1---1-----1---1--|--1-----1-1--1-1--1-1--|
                                  - -  - -  - -
|------------------------|-----------------------|
|------------------------|-----------------------|
|------------------------|-----------------------|
|------------------------|-----------------------|
|-----------------0---0--|--0-----0-0--0-0--0-0--|
|---1---1---1-----1---0--|--1-----1-1--1-1--1-1--|
                  -   -     -     - -  - -  - -
Добавлено: 12.03.2012
Другие материалы по этой песне:

Страница создана 12.03.2012
http://primanota.ru/attila/sex-drugs-violence-chords.htm
Привет, Гость.
Предлагаем пройти революционный курс по гитаре.
Подарок от PrimaNota.Ru, забирай!