PrimaNota.ru - самый крупный в мире бесплатный архив песенных текстов, аккордов, табулатур и нот


Attila - What Would Kimbo Slice Do - таба, видео

Регистрация Запомнить меня
Войти через:  Facebook Google Twitter Vk Yandex Mail.ru

Attila - What Would Kimbo Slice Do - таба, видео

Печатать
Просмотров: 177
-----------------------------------------------------------------------------
                             Attila - What would Kimbo Slice do?
-----------------------------------------------------------------------------
Tabbed by: Chris
Email: element_rulez2006@yahoo.com

Tuning: Drop C

|---------------------------------------------------------------------|
|---------------------------------------------------------------------|
|---------------------------------------------------------------------|
|--0--0--0--0---0----0-----0------0-----------------------------------|
|--0--0--0--0---0----0-----0------0-----------------------------------|
|--0--0--0--0---0----0-----0------0-----------------------------------|

Bass part

|-----------------------------------------------------------------------|
|-----------------------------------------------------------------------|
|-----------------------------------------------------------------------|
|--------------------0--0--0--------------------------------------------|
|--------------------0--0--0--------------------------------------------|
|--1-----1-----------0--0--0--------------------------------------------|
          b

This is what i think it is, it could be wrong.
|-------------------------------------------------------------|
|-------------------------------------------------------------|
|-------------------------------------------------------------|
|-0----------------0-3-0-----0--0-----------------0-----------|
|-0-----------0-1-3----------0--0-----------------0-----------|
|-0----0-1-3-4---------------0--0-----------------0-----------|

|---------------------------------------------------------------------|
|---------------------------------------------------------------------|
|---------------------------------------------------------------------|
|--0--0--0--0---0----0-----0------0-----------------------------------|
|--0--0--0--0---0----0-----0------0-----------------------------------|
|--0--0--0--0---0----0-----0------0-----------------------------------|

|----------------------------------------------------------------|
|----------------------------------------------------------------|
|----------------------------------------------------------------|
|------------------------------------------0-0-0-----------------|
|------------------------------------------0-0-0-----------------|
|-00-0--00-0-00-0-0--------1-----1---------0-0-0-----------------|
  **    ** * ** *                b

That's it. It's the same thing, over and over, it just gets faster.
Really simple song, that's fun to play.
************************************

| /   slide up
| \   slide down
| h   hammer-on
| p   pull-off
| ~   vibrato
| +   harmonic
| x   Mute note
| b   Bend
| pb  Pre-bend
| br  Bend release
| pbr Pre-bend release
| brb Bend release bend

************************************
Добавлено: 28.03.2012
Другие материалы по этой песне:
  • Аккорды и текст

Страница создана 28.03.2012
http://primanota.ru/attila/what-would-kimbo-slice-do-chords.htm
Привет, Гость.
Предлагаем пройти революционный курс по гитаре.
Подарок от PrimaNota.Ru, забирай!