PrimaNota.ru - самый крупный в мире бесплатный архив песенных текстов, аккордов, табулатур и нот


Attila - Lights Out - таба, видео

Регистрация Запомнить меня
Войти через:  Facebook Google Twitter Vk Yandex Mail.ru

Attila - Lights Out - таба, видео

Печатать
Просмотров: 318
Уроки эстрадного вокала в Санкт-Петербурге
-------------------------------------------------------------------------------
                             Lights Out - Attila
-------------------------------------------------------------------------------
Tabbed by: Oscar        
Email: manuel1753@sbcglobal.net

Tuning: Drop B

c#|---------------------------------------------------------------------------|
G#|---------------------------------------------------------------------------|
 E|------------------7----------------10-7-------------9br--5-----------------|
 B|------------------x----------------x--x-------------x----x-----------------|
F#|--3-0-3-0-6-3-0---5---0-3-6-3-0----8--5---0-3-6-0---7br--3----3-0-2h3h2----|
 B|--3-0-3-0-6-3-0-------0-3-6-3-0-----------0-3-6-0-------------3-0-2h3h2----|
                         . . . . .           . . . .
c#|---------------------------------------------------------------------------|
G#|---------------------------------------------------------------------------|
 E|------------------7----------------10-7-------------9br--5-----------------|
 B|------------------x----------------x--x-------------x----x-----------------|
F#|--3-0-3-0-6-3-0---5---0-3-6-3-0----8--5---0-3-6-0---7br--3----3-0-2-3-2-0--|
 B|--3-0-3-0-6-3-0-------0-3-6-3-0-----------0-3-6-0-------------3-0-2-3-2-0--|
                         . . . . .           . . . .                 . . . .
c#|---------------------------------------------------------------------------|
G#|---------------------------------------------------------------------------|
 E|---------------------------------------------------------------------------|
 B|---------------------------------------------------------------------------|
F#|--------------------3-------------------8-----------5----------------------|
 B|--3-0-3-0-6-6-6-3-0---0-3-0-3-6-3-0-5br----0-0-0-0----5-6-5-0-0-3-5-3-0----|
                                              . . . .          . .
c#|---------------------------------------------------------------------------|
G#|---------------------------------------------------------------------------|
 E|---------------------------------------------------------------------------|
 B|-----------------------------------------7---------------------------------|
F#|--------------------3----------------5br------------5----------------------|
 B|--3-0-3-0-6-6-6-3-0---0-3-0-3-6-3-0--------0-0-0-0----5-6-5-0-0-3-5-3-0----|
                                              . . . .          . .
c#|---------------------------------------------------------------------------|
G#|---------------------------------------------------------------------------|
 E|---------------------------------------------------------------------------|
 B|--3-------------------------------------------1--------4-------------------|
F#|--3-----0-00-0-0-0000-----00-0-0-00----00-0-0-1-1-11-1-4-4-44-4-0----------|
 B|--3-----0-00-0-0-0000-----00-0-0-00----00-0-0-1-1-11-1-4-4-44-4-0----------|
           . .. . . ....     .. . . ..    .. . .   . .. .   . .. . .
c#|---------------------------------------------------------------------------|
G#|---------------------------------------------------------------------------|
 E|---------------------------------------------------------------------------|
 B|---------------------------------------1--------4--------------------------|
F#|--00-0-0-00-----00-0-0-0000-----00-0-0-1-1-11-1-4-4-44-4-------------------|
 B|--00-0-0-00-----00-0-0-0000-----00-0-0-1-1-11-1-4-4-44-4-------------------|
     .. . . ..     .. . . ....     .. . .   . .. .   . .. .
c#|---------------------------------------------------------------------------|
G#|---------------------------------------------------------------------------|
 E|-7p0-----------------------------------------------------------------------|
 B|----------------7h8p7p0--10p8--7h8p7---------------------------------------|
F#|---------------------------------------8-----------------------------------|
 B|-------000000------------------------------10p8-7h8-5h7-3h5----------------|\
          ......                                                                x2
c#|---------------------------------------------------------------------------|/
G#|---------------------------------------------------------------------------|
 E|---------------------------------------------------------------------------|
 B|---------------------------------------------------------------------------|
F#|-----------5----4----------------------------------------------------------|
 B|---000000----00---00--7p0-8p7----000000---8888-4444------------------------|
      ......                        ......
c#|---------------------------------------------------------------------------|
G#|---------------------------------------------------------------------------|
 E|-----------7------------3------------------7-----5---------3/5-------------|x2
 B|--3---0----x------------x------------------x-----x---------x-x-------------|
F#|--3---0----5----3-2-0---1------------------5-----3--3-2-0--1/3--0-3-2-0----|
 B|--3---0---------3-2-0-------3--2~--0-00-0-----0-----3-2-0-------0-3-2-0----|
                                        ..       .     . . .       . . . .
c#|---------------------------------------------------------------------------|
G#|---------------------------------------------------------------------------|
 E|-----------------7---------------10-7-------------9br--5-------------------|
 B|-----------------x---------------x--x-------------x----x-------------------|
F#|-3-0-3-0-6-3-0---5--0000-00-0----8--5---0-3-6-0---7br--3----3-0-2-3-2-0----|
 B|-3-0-3-0-6-3-0------0000-00-0-----------0-3-6-0-------------3-0-2-3-2-0----|
                       .... .. .           . . . .                 . . . .
c#|---------------------------------------------------------------------------|
G#|---------------------------------------------------------------------------|
 E|--77777777---12121212---141414---1515--------------------------------------|
 B|--xxxxxxxx----x-x-x-x----x-x-x----x-x----------12--------------------------|
F#|--55555555---10101010---121212---1313-------------------15-13-12\8---------|
 B|---------------------------------------000000-----00-----------------------|
                                          ......     ..
c#|---------------------------------------------------------------------------|
G#|---------------------------------------------------------------------------|
 E|---------------------------------------------------------------------------|
 B|----------------------8-7--------------------------------------------------|
F#|---88888888---7-8-10-------8-7--------55555555--000-00-000-00--------------|
 B|---88888888---------------------------55555555--000-00-000-00--------------|
      ........                           ........  ... .. ... ..
c#|---------------------------------------------------------------------------|
G#|---------------------------------------------------------------------------|
 E|--1010101010101010---14141414---171717---1919------------------------------|
 B|---x-x-x-x-x-x-x-x----x-x-x-x----x-x-x----x-x---------12-------------------|
F#|---8-8-8-8-8-8-8-8---12121212---151515---1717------------15-13-12-13-12\8--|
 B|-----------------------------------------------000000----------------------|
                                                  ......

c#|---------------------------------------------------------------------------|
G#|---------------------------------------------------------------------------|
 E|---------------------------------------------------------------------------|
 B|----------------------8-7--------------------------------------------------|
F#|---88888888---7-8-10-------8-7--------55555555--000-00-000-00--------------|
 B|---88888888---------------------------55555555--000-00-000-00--------------|
      ........                           ........  ... .. ... ..
c#|---------------------------------------------------------------------------|
G#|---------------------------------------------------------------------------|
 E|---------------------------------------------------------------------------|
 B|---------------------------------------------------------------------------|
F#|-000-00---000-----000---000-0-0-0--000-00---000-----000---000-4-4-4--------|
 B|-000-00---000---0-000---000-0-0-0--000-00---000---0-000---000-4-4-4--------|
    ... ..   ...     ...   ... . . .  ... ..   ...     ...   ... . . .
c#|----------------------10p8------------------------14p12----------------17h18p17---|
G#|---------------7h8p7-------11-10/13-11------------------14----------15----------18|
 E|----------------------------------------11-----------------14-15-17---------------|
 B|----------7-10--------------------------------------------------------------------|
F#|------5-8-------------------------------------------------------------------------|
 B|-000----------------------------------------0-000---------------------------------|\
    ...                                        . ...                                   x2
c#|----------------------10p8---------8----------------------------------------------|/
G#|---------------7h8p7-------11-10-8---8--------------------------------------------|
 E|----------------------------.--.-.-----------------7-5--------------------7-------|
 B|----------7-10------------------------------------------8-7--------5-7-8----------|
F#|------5-8-----------------------------------------------.-.-----------------------|
 B|-000--------------------------------------0-000--------------00-0-----------------|
    ...                                      . ...              .. .

Now that my secrets out--- I have finally gone insane, all my evil schemes and master plans
are playing out!! 

c#|---------------------------------------------------------------------------|
G#|---------------------------------------------------------------------------|
 E|---------------------------------------------------------------------------|
 B|---------------------------------------------------------------------------|
F#|-00-00---------0-0-0--8p0------0-00-----------0-0-0--5p0------0-00---------|
 B|-00-00---------0-0-0-------6~--0-00-----------0-0-0-------4~--0-00---------|
                  . . .           . ..           . . .           . ..
c#|---------------------------------------------------------------------------|
G#|---------------------------------------------------------------------------|
 E|---------------------------------------------------------------------------|
 B|---------------------------------------------------------------------------|
F#|--0-0-0--8p0------0-00-----------0-0-0--5p0------0-00----00000000----------|
 B|--0-0-0-------6~--0-00-----------0-0-0-------4~--0-00----00000000----------|
     . . .           . ..           . . .           . ..    ........
c#|---------------------------------------------------------------------------|
G#|---------------------------------------------------------------------------|
 E|---------------------------------------------------------------------------|
 B|---------------------------------------------------------------------------|
F#|--00-0-00--8p0------0-00--4-5-4-5---00-0-00--5p0-----0-00-----00000000-----|
 B|--00-0-00-------6~--0-00------------00-0-00-------4~-0-00-----00000000-----|
     .. . ..           . ..            .. . ..          . ..     ........
c#|------------------------------------------------------------------------------|
G#|------------------------------------------------------------------------------|
 E|------------------------------------------------------------------------------|
 B|------------------------------------------------------------------------------|
F#|--00-0-00--8p0------0-00--4-5-4-5---00-0-00--5p0-----0-00--0000000000000000-0-|
 B|--00-0-00-------6~--0-00------------00-0-00-------4~-0-00--0000000000000000-0-|
     .. . ..           . ..            .. . ..          . ..  ................ .




************************************
| .   palm mute
| /   slide up
| \   slide down
| h   hammer-on
| p   pull-off
| ~   vibrato
| +   harmonic
| x   Mute note
| b   Bend
| pb  Pre-bend
| br  Bend release
| pbr Pre-bend release
| brb Bend release bend

************************************
Добавлено: 27.05.2012
Другие материалы по этой песне:

Страница создана 27.05.2012
http://primanota.ru/attila/lights-out-chords.htm
Привет, Гость.
Предлагаем пройти революционный курс по гитаре.
Подарок от PrimaNota.Ru, забирай!