PrimaNota.ru - самый крупный в мире бесплатный архив песенных текстов, аккордов, табулатур и нот


Attila - Cheyenne 420 - таба, видео

Регистрация Запомнить меня
Войти через:  Facebook Google Twitter Vk Yandex Mail.ru

Attila - Cheyenne 420 - таба, видео

Печатать
Просмотров: 226
Artist: Attila
Song:Cheyenne 420
Tunning: Drop C#


|---------------------------------------------------------------------|
|---------------------------------------------------------------------|
|---------------------------------------------------------------------|
|----------------2-3--------3----------3---5b-3b-2--------------------|
|000-0~-777-7-------3-5--3-5-5-3-5--3-5-5-3---------------------------|
|000-0~-777-7-----------0----------0---------------0-7-8-7~-0-5-4-0-4-|
 ...    ...             .          .

|---------------------------------------------|
|---------------------------------------------|
|---------------------------------------------|
|-----------------5/7-5-4---------------------|
|-------------0~--3/5-3-2-000-0~-00-----------|
|0-4-5-7-5-4--0~----------000-0~-00-0h1-4-1-0-|
                          ...    ..

|---------------------------------------------------|
|---------------------------------------------------|
|---------------------------------------------------|
|-------------3----------3---5b-3b-2----------------|
|------5~--3-5-5-3-5--3-5-5-3-----------------------|
|---------0----------0---------------0-7-8-7~-0-5-4-|
          .          .

|---------------------------------------------|
|---------------------------------------------|
|---------------------------------------------|
|-----------------5/7-5-4---------------------|
|-------------0~--3/5-3-2-000-0~-00-----------|
|0-4-5-7-5-4--0~----------000-0~-00-0h1-4-1-0-|
                          ...    ..

|-------------------------------------------------------------------|
|-------------------------------------------------------------------|
|-------------------------------------------------------------------|
|----------------------------------------------------------------0~-|
|0-0-0-0-0--0-0--0-0-0-0--00~-00~-0-0-0-0-0--0-0--0-0-0-0--0-0-0-0~-|
|1-0-1-0-1--0-1--0-1-0-1--11~-11~-0-0-1-0-1--0-1--0-1-0-1--1-1-1-0~-|
 . . . . .  . .  . . . .  ..  ..  . . . . .  . .  . . . .  . . .
_____________________________________________________________________________
|--------------------------------------------------------| (2x)
|--------------------------------------------------------|
|--------------------------------------------------------|
|---------------------------------------------------2----|
|0~-000-2-3----0~-000--------2~-00-2~-00-2~-------2---3--|
|0~-000----3~--0~-000-8-7-6~-2~-00-2~-00-2~-2-3-6--------|
    ...           ...           ..    ..

|-------------------------------------------------------|
|-------------------------------------------------------|
|-------------------------------------------------------|
|----------------------------------------------------2--|
|-3~-333-3-----0~-000--5-2---2~-00-2~-00-2~--------2--3-|
|-3~-333--5-3~-0~-000-----6~-2~-00-2~-00-2~--2-3-6------|
     ...          ...           ..    ..
_____________________________________________________________________________
|-------------------------------------------------------| (2x)
|-------------------------------------------------------|
|-------------------------------------------2h3p2-------|
|-----------------------5\4-3~------3~-----------3/5----|
|-3-00-3-2-0-6~-3-2-3-2-3\2-1~------1~--------------3/5-|
|-3-00-3-2-0-6~-3-2-3-2----5---55555---5555-------------|
                . . . .    .   .....   ....

|------------------------------------------------------|
|------------------------------------------------------|
|------------------------------------------------------|
|-----------------------5\4-3~--------3~---------------|
|-3-00-3-2-0-6~-3-2-3-2-3\2-1~--------1~-----322322322-|
|-3-00-3-2-0-6~-3-2-3-2----5---555-555---555-322322322-|
                . . . .    .   ... ...   ... .........

_____________________________________________________________________________
Guitar one (Left):

|--------------------------------------------------------------|
|--------------------------------------------------------------|
|--------------------------------------------------------------|
|-0~-----------------------------------------------------------|
|-0~-----------00000000--0-0-0-------0-0-0-0--0-0--0--0000-----|
|-0~--0000-----00000000--0-0-0--00---0-0-0-0--0-0--0--0000-----|
               ........  . . .       . . . .  . .  .  ....

Guitar 2 (Right):

|--------------------------------------------------------------|
|--------------------------------------------------------------|
|--------------------------------------------------------------|
|-0~-----------------------------------------------------------|
|-0~-----------00000000--0-0-0-------0-0-0-0--0-0--0--0000-----|
|-0~------0000-00000000--0-0-0----00-0-0-0-0--0-0--0--0000-----|
               ........  . . .       . . . .  . .  .  ....

Guitar 1 (Left):
|--------------------------------------------------------------------------|
|--------------------------------------------------------------------------|
|--------------------------------------------------------------------------|
|--------------------------------------------------------------------------|
|------0-0-0-0--0-0--00---0---------0-0-0-0--0-0--------------0-0-0-0--0-0-|
|---00-0-0-0-0--0-0--00-0-0---00----0-0-0-0--0-0--0--0000-0---0-0-0-0--0-0-|
       . . . .  . .  ..   .         . . . .  . .  .  .... .   . . . .  . .
Guitar 2 (Right):
|--------------------------------------------------------------------------|
|--------------------------------------------------------------------------|
|--------------------------------------------------------------------------|
|--------------------------------------------------------------------------|
|------0-0-0-0--0-0--00---0---------0-0-0-0--0-0--0--0000-0---0-0-0-0--0-0-|
|-00---0-0-0-0--0-0--00--00------00-0-0-0-0--0-0--0--0000-0---0-0-0-0--0-0-|
       . . . .  . .  ..   .         . . . .  . .  .  .... .   . . . .  . .

Guitar 1 (Solo)
|-10----10--------10---------------------------------------------------------|
|----13b--13-10h13--13-10---10-----------------------------------------------|
|-------------------------12---12-10h12p10-10-----------------14-12----------|
|--------------------------------------------12b---12-0-12-15-------15-14-15-|
|------------------------------------------------12--------------------------|
|----------------------------------------------------------------------------|


                          (wah-wah pedal used here i think)
|----------------------------17p13--15p12------12~~-------|
|-15-17-18----15-17-18------------14-----13--13-----------|
|----------14---------14-------------------13-------------|
|-----------------------15--------------------------------|
|-------------------------17------------------------------|
|---------------------------------------------------------|


Guitar 2 (Rhythm):

|---------------------------------------------------------------------|
|---------------------------------------------------------------------|
|---------------------------------------------------------------------|
|----2-3--------3----------3---5b-3b-2--------------------------------|
|-------3-5--3-5-5-3-5--3-5-5-3---------------------------------------|
|-----------0----------0---------------0-7-8-7~-0-5-4-0-4-------------|
            .          .

|---------------------------------------------|
|---------------------------------------------|
|---------------------------------------------|
|-----------------5/7-5-4---------------------|
|-------------0~--3/5-3-2-000-0~-00-----------|
|0-4-5-7-5-4--0~----------000-0~-00-0h1-4-1-0-|


|---------------------------------------------------|
|---------------------------------------------------|
|---------------------------------------------------|
|-------------3----------3---5b-3b-2----------------|
|------5~--3-5-5-3-5--3-5-5-3-----------------------|
|---------0----------0---------------0-7-8-7~-0-5-4-|
          .          .

|---------------------------------------------|
|---------------------------------------------|
|---------------------------------------------|
|-----------------5/7-5-4---------------------|
|-------------0~--3/5-3-2-000-0~-00-----------|
|0-4-5-7-5-4--0~----------000-0~-00-0h1-4-1-0-|
                          ...    ..
_____________________________________________________________________________


|---------------------------------------------------------------|
|---------------------------------------------------------------|
|---------------------------------------------------------------|
|---------------------------------------------------------------|
|----------------------000~000~------------------------0~-0~-0~-|
|-0--0-0--0-0--0--0-0--000~000~-0-0--0-0--0-0--0--0-0--1~-1~-1~-|
                       ... ...                         .  .  .

|-------------------------------------------------------------------|
|-------------------------------------------------------------------|
|-------------------------------------------------------------------|
|----------------------------------------------------------------0~-|
|0-0-0-0-0--0-0----0-0-0--00~-00~-0-0-0-0-0----0--0-0-0-0--0-0-0-0~-|
|1-0-1-0-1--0-1--0-1-0-1--11~-11~-0-0-1-0-1--0-1--0-1-0-1--1-1-1-0~-|
 . . . . .  . .    . . .  ..  ..  . . . . .    .  . . . .  . . .


KEY______

.-palm mute
b-bend
~-ring out
h-hammer on
p-pull off
t-trill
tp-trem. pick
/-slide up
\-slide down
Добавлено: 07.07.2012
Другие материалы по этой песне:
  • Аккорды и текст

Страница создана 01.05.2012
http://primanota.ru/attila/cheyenne-420-chords.htm
Привет, Гость.
Предлагаем пройти революционный курс по гитаре.
Подарок от PrimaNota.Ru, забирай!