PrimaNota.ru - самый крупный в мире бесплатный архив песенных текстов, аккордов, табулатур и нот


Attack Attack - Last Breath - текст песни, таба, бас-таба, видео

Регистрация Запомнить меня
Войти через:  Facebook Google Twitter Vk Yandex Mail.ru

Attack Attack - Last Breath - текст песни, таба, бас-таба, видео

Печатать
Просмотров: 535
Last Breath by Attack Attack!
Tuning: Drop A (A E A D F# B)

Intro x2
B :------------------------------------------------------------------------|
F#:------------------------------------------------------------------------|
D :------------------------------------------------------------------------|
A :------------------------------------------------------------------------|
E :------------------------------------------------------------------------|
A :-444444444444444-777777777777777-22222222222222-000000000000000---------|

Verse 1 x4
B :------------------------------------------------------------------------|
F#:------------------------------------------------------------------------|
D :------------------------------------------------------------------------|
A :------------------------------------------------------------------------|
E :------------------------------------------------------------------------|
A :-44-44-44444444-44-4444-44----------------------------------------------|

Pre-chorus x2
B :------------------------------------------------------------------------|
F#:------------------------------------------------------------------------|
D :------------------------------------------------------------------------|
A :-44444444444~--7777-77777777-22222222222~--9999-99999999----------------|
E :-44444444444~--7777-77777777-22222222222~--9999-99999999----------------|
A :-44444444444~--7777-77777777-22222222222~--9999-99999999----------------|

Chorus x2 (last time through play final chord once and let ring)
B :------------------------------------------------------------------------|
F#:------------------------------------------------------------------------|
D :------------------------------------------------------------------------|
A :-444444444444444-777777777777777-22222222222222-000000000000000---------|
E :-444444444444444-777777777777777-22222222222222-000000000000000---------|
A :-444444444444444-777777777777777-22222222222222-000000000000000---------|

Pre-Verse x2
B :------------------------------------------------------------------------|
F#:------------------------------------------------------------------------|
D :------------------------------------------------------------------------|
A :------------------------------------------------------------------------|
E :------------------------------------------------------------------------|
A :-44-44-44444444-44-4444-44----------------------------------------------|

Verse 2: Break

Pre-chorus x2
B :------------------------------------------------------------------------|
F#:------------------------------------------------------------------------|
D :------------------------------------------------------------------------|
A :-44444444444~--7777-77777777-22222222222~--9999-99999999----------------|
E :-44444444444~--7777-77777777-22222222222~--9999-99999999----------------|
A :-44444444444~--7777-77777777-22222222222~--9999-99999999----------------|

Chorus x2
B :------------------------------------------------------------------------|
F#:------------------------------------------------------------------------|
D :------------------------------------------------------------------------|
A :-444444444444444-777777777777777-22222222222222-000000000000000---------|
E :-444444444444444-777777777777777-22222222222222-000000000000000---------|
A :-444444444444444-777777777777777-22222222222222-000000000000000---------|

Breakdown part 1 x2
B :------------------------------------------------------------------------|
F#:------------------------------------------------------------------------|
D :------------------------------------------------------------------------|
A :------------------------------------------------------------------------|
E :------------------------------------------------------------------------|
A :-4-3-2---4-3-2-11111111-------------------------------------------------|

Breakdown part 2 x4 (OH!)
B :------------------------------------------------------------------------|
F#:------------------------------------------------------------------------|
D :------------------------------------------------------------------------|
A :-4-3-2---4-3-2----------------------------------------------------------|
E :-4-3-2---4-3-2-00000000-------------------------------------------------|
A :-4-3-2---40302-11111111-------------------------------------------------|
             . .  ........

Breakdwon part 3 x4 (I've been trying...)
B :------------------------------------------------------------------------|
F#:------------------------------------------------------------------------|
D :------------------------------------------------------------------------|
A :-4-3-2---4-3-2----------------------------------------------------------|
E :-4-3-2---4-3-2-00000000-------------------------------------------------|
A :-40302---40302-11111111-------------------------------------------------|
     . .     . .  ........

Bridge
B :------------------------------------------------------------------------|
F#:------------------------------------------------------------------------|
D :------------------------------------------------------------------------|
A :--4~-----------7~-------------------------------------------------------|
E :--4~-----------7~-------------------------------------------------------|
A :--4~-----------7~-------------------------------------------------------|

Chorus x4 (first time through, on 4's, only do the bottom notes)
B :------------------------------------------------------------------------|
F#:------------------------------------------------------------------------|
D :------------------------------------------------------------------------|
A :-444444444444444-777777777777777-22222222222222-000000000000000---------|
E :-444444444444444-777777777777777-22222222222222-000000000000000---------|
A :-444444444444444-777777777777777-22222222222222-000000000000000---------|

Outro x4  (Last time through, play final chord once and let ring)
B :------------------------------------------------------------------------|
F#:------------------------------------------------------------------------|
D :------------------------------------------------------------------------|
A :-4-3-2---4-3-2----------------------------------------------------------|
E :-4-3-2---4-3-2-00000000-------------------------------------------------|
A :-4-3-2---40302-11111111-------------------------------------------------|
             . .  ........
Добавлено: 13.06.2013
Другие материалы по этой песне:

Страница создана 16.03.2012
http://primanota.ru/attack-attack/last-breath-chords.htm
Привет, Гость.
Предлагаем пройти революционный курс по гитаре.
Подарок от PrimaNota.Ru, забирай!