PrimaNota.ru - самый крупный в мире бесплатный архив песенных текстов, аккордов, табулатур и нот


Attack Attack - Renob Nevada - текст песни, таба, видео

Регистрация Запомнить меня
Войти через:  Facebook Google Twitter Vk Yandex Mail.ru

Attack Attack - Renob Nevada - текст песни, таба, видео

Печатать
Просмотров: 223
Уроки эстрадного вокала в Санкт-Петербурге
-----------------------------------------------------------------------------
                             Renob, Nevada - Attack Attack!
-----------------------------------------------------------------------------
Tabbed by:androidkaita
Email:

Tuning:B F# B E G# C#

C#|--------------------------------|
G#|--------------------------------|
E |--------------------------------|
B |--------------------------------|
F#|000--0-0--000--0-0--------------|
B |111--1-1--111--1-1--------------|

C#|-----------------------------------------------------|
G#|-----------------------------------------------------|
E |-----------------------------------------------------|
B |-----------------------------------------------------|
F#|0-0-0-0--000-0-0-0-0-0-0-0-0--000-0-0--0-0-----------|
B |1-1-1-1--111-1-1-1-1-1-1-1-1--111-1-1--1-1-----------|

C#|---------------------------------------------------------|
G#|---------------------------------------------------------|
E |---------------------------------------------------------|
B |---------------------------------------------------------|
F#|0-0-0-0--000-0-0-0-0-0-0-0-0--000-3---2--------3----4----|
B |1-1-1-1--111-1-1-1-1-1-1-1-1--111--0-0-0-0-3-----3b---3--|b
pm|                                   --- ------------------|

C#|-------8------------------------------------------------|
G#|--------------------------------------------------------|
E |7-9-10---10-9-------------------------------------------|
B |--------------------------------------------------------|
F#|--------------------------------------------------------|
B |--------------------------------------------------------|

************************************

| /   slide up
| \   slide down
| h   hammer-on
| p   pull-off
| ~   vibrato
| +   harmonic
| x   Mute note
| b   Bend
| pb  Pre-bend
| br  Bend release
| pbr Pre-bend release
| brb Bend release bend

************************************
Добавлено: 06.04.2012
Другие материалы по этой песне:

Страница создана 08.03.2012
http://primanota.ru/attack-attack/renob-nevada-chords.htm
Привет, Гость.
Предлагаем пройти революционный курс по гитаре.
Подарок от PrimaNota.Ru, забирай!