PrimaNota.ru - самый крупный в мире бесплатный архив песенных текстов, аккордов, табулатур и нот


Attack Attack - Sexual Man Chocolate - текст песни, таба, видео

Регистрация Запомнить меня
Войти через:  Facebook Google Twitter Vk Yandex Mail.ru

Attack Attack - Sexual Man Chocolate - текст песни, таба, видео

Печатать
Просмотров: 279
-------------------------------------------------------------------------------
                             SEXUAL MAN CHOCOLATE – Attack Attack!
-------------------------------------------------------------------------------

New song from their upcoming album "Shazam!". Reallly easy song

Tuning: Drop B

|-----------------------------------------------------------|
|-----------------------------------------------------------|
|-----------------------------------------------------------|
|-----------------------------------------------------------|
|-000000-0-000-000-000000-000000-0-000-000-000000-----------|
|-000000-0-000-000-000000-000000-0-000-000-000000---(2x)----|
  ...... . ... ... ...... ...... . ... ... ......
|-----------------------------------------------------------|
|-----------------------------------------------------------|
|-----------------------------------------------------------|
|-----------------------------------------------------------|
|-000000-----------000000-000000-----------000000-----------|
|-000000-0-000-000-000000-000000-0-000-000-000000---(2x)----|
  ......           ...... ......           ......

  CHORUS
|------------------------------------------------------------|
|------------------------------------------------------------|
|----7----3----5---------------------------------------------|
|-------------------7----------------------------------------|
|----5----1----3----7---(2x)----3b3b3b---------3b3b3b-000-000|
|-------------------7------------------000-000--------000-000|
                                       ..  ..         ... ...
|--------------------------------------------------------------------------|
|--------------------------------------------------------------------------|
|--------------------------------------------------------------------------|
|-0~~---------------------------------0~~----------------------------------|
|-0~~---------------------------------0~~----------------------------------|
|-0~~---------------------------------0~~----------------------------------|

|--------------------------------------------------------------------------|
|--------------------------------------------------------------------------|
|--------------------------------------------------------------------------|
|--------------------------------------------------------------------------|
|-3b--------000-000000-------3b--------0~----------------------------------|
|---3p0-3p0-000-000000---------3p0-3p0-0~----------------------------------|
            ... ......                 .
|--------------------------------------------------------------------------|
|--------------------------------------------------------------------------|
|--------------------------------------------------------------------------|
|--------------------------------------------------------------------------|
|-3b--------000-000000-------3b--------00-0-00-----------------------------|
|---3p0-3p0-000-000000---------3p0-3p0-11-0-11----(2x)---------------------|
            ... ......                 ..   ..
|----------------------------------------------------------------------------|
|----------------------------------------------------------------------------|
|-14----10----12---7---------------------------------------------------------|
|----------------------------------------------------------------------------|
|-12----8-----10---5---(2x)--------------------------------------------------|
|----------------------------------------------------------------------------|

 Do the chorus twice

|-------------------------------------------------------------------------|
|-------------------------------------------------------------------------|
|-------------------------------------------------------------------------|
|-------------------------------------------------------------------------|
|-000000-0-00--00--000000-000000-0-00--00--000000-------------------------|
|-000000-0-000-000-000000-000000-0-000-000-000000---(2x)------------------|
  ...... . ..  ..  ...... ...... . ..  ..  ......

Kinda sad how simple it is…
************************************

| p   pull-off
| ~   vibrato
| .   Mute note
| b   Bend

************************************
Добавлено: 07.07.2012
Другие материалы по этой песне:

Страница создана 05.03.2012
http://primanota.ru/attack-attack/sexual-man-chocolate-chords.htm
Привет, Гость.
Предлагаем пройти революционный курс по гитаре.
Подарок от PrimaNota.Ru, забирай!