PrimaNota.ru - самый крупный в мире бесплатный архив песенных текстов, аккордов, табулатур и нот


Arch Enemy - In This Shallow Grave - текст песни, таба, видео

Регистрация Запомнить меня
Войти через:  Facebook Google Twitter Vk Yandex Mail.ru

Arch Enemy - In This Shallow Grave - текст песни, таба, видео

Печатать
Просмотров: 199
Уроки эстрадного вокала в Санкт-Петербурге
Авторы музыки: Daniel Erlandsson, Michael Amott, Christopher Amott
Авторы текста: Michael Amott
| /  slide up
| \  slide down
| h  hammer-on
| p  pull-off
| ~  vibrato
| +  harmonic
| x  Mute note
[ ^  Bend

this song is tuned do C like most Arch Enemy
CF A# D# GC  [2 steps down]

intro=G1+2

------------------------------------------------------------------|
------------------------------------------------------------------|
------------------------------------------------------------------|
------------------------------------------------------------------|
---------7---8----7-------------------5-7-8-----------7---8---7---|
--0--000---0---0-------0--000-0000-0-----------0-000----0---0-----|


-----------------------------------------------|
-----------------------------------------------|
-----------------------------------------------|
-----------------------------------------------|
-----------------------------------------------|
------------5-7-8------------------------------|
--0-000--0-------------------------------------|


-----------------------------------------------------------------|
-----------------------------------------------------------------|
-----------------------------------------------------------------|
-----------------------------------------------------------------|
---------7-8-7---------------5-----------------------------------|
--5-555----------5-555-5555--3-----------------------------------|


-----------------------------------------------------------------------------|
-----------------------------------------------------------------------------|
-----------------------------------------------------------------------------|
-----------------------------------------------------------------------------|
---------7-8-7---------------5-7-8---------7-8-7--------------5-7-8----------|
--0-000--------0-000-0000--0---------0-000-------0-000-0000-0----------------|

fill for intro

f---8-7-5-7-5-------------------|
c-------------8-7---------------|

verse 1
------------------------------------------------------------|
------------------------------------------------------------|
------------------------------------------------------------|
--------------------------------2---3---2-------------------|
------------------------------------------------------------|
-0000--1^0--0000--3^0---000000----0---0---------------------|


verse 2
G1+2 the first time both guitars play this
------------------------------------------------------------------|
------------------------------------------------------------------|
------------------------------------------------------------------|
---7-------7-------7-9-10-------10-------10--12--5-------5--------|
-----0-0-0---0-0-0--------0-0-0----0-0-0-----------0-0-0----0-0-0-|
------------------------------------------------------------------|

---------------------------------------------------------|
---------------------------------------------------------|
---------------------------------------------------------|
--5-7-3-------3--------2---------------------------------|
--------0-0-0----0-0-0-----------------------------------|
---------------------------------------------------------|

this is the part for G2 on  the second repeat
-----------------------------------------------------------------------------|
-----------------------------------------------------------------------------|
-----------------------------------------------------------------------------|
--10-------10-------10--12--14-------14-------14-15-12--------12-------12-14-|
-----0-0-0----0-0-0------------0-0-0----0-0-0-----------0-0-0----0-0-0-------|
-----------------------------------------------------------------------------|


---------------------------------------------------|
---------------------------------------------------|
---------------------------------------------------|
--10-------10-------9------------------------------|
-----0-0-0----0-0-0--------------------------------|
---------------------------------------------------|


----------------------------------------------------------------------------|
----------------------------------------------------------------------------|
----------------------------------------------------------------------------|
----------------------------------------------------------------------------|
--7-----7----7-9-10-----10-----10-12-5-----5-----5-7-3-----3-----2----------|
----000---000-------000----000---------000---000-------000---000------------|

chorus
----------------------------------------------------------------------------|
----------8---9-----------8---9----------11---------8---9-------------------|
----------9---10----------9---10---------12---------9---10------------------|
----------9---10----------9---10---------12---------9---10------------------|
----------7---8-----------7---8----------10---------7---8-------------------|
--000-00----------000-00-----------000---------000-----------000--00--0000--|


G2 is doing the same thing but at the end of the riff it plays this

------------------------------------------------------------------|
------------------------------------------------------------------|
------------------------------------------------------------------|
--4--3--4--5------------------------------------------------------|
--2--3--2--3------------------------------------------------------|
--2--1--2--3------------------------------------------------------|

melody line
-----------------------------------------------------------------------------|
-----------------------------------------------------------------------------|
--13-12-10-12-13------13-12-10-12-13-10----13-12-10-12-13--------------------|
-----------------11----------------------------------------------------------|
-----------------------------------------------------------------------------|
-----------------------------------------------------------------------------|

riff behind solo
------------------------------------------------|
------------------------------------------------|
------------------------------------------------|
--7-------7-------7-------7---------7------7----|
--7-------7-------7-------7---------7------7----|
--5--5-5--5--5-5--5--5-5--5---5-5---5--5---5----|

---------------------------------------------------------------|
---------------------------------------------------------------|
-3-------3-------3-------3-------3-----3-----------------------|
-3-------3-------3-------3-------3-----3-----------------------|
-1--1-1--1--1-1--1--1-1--1--1-1--1--1--1-----------------------|

---------------------------------------------------------------------|
---------------------------------------------------------------------|
---------------------------------------------------------------------|
--5-------5-------5-------5-------5-----5----------------------------|
--5-------5-------5-------5-------5-----5----------------------------|
--3--3-3--3--3-3--3--3-3--3--3-3--3--3--3----------------------------|
after this it goes back to the begining


part be fore solo
------------------------------------------------|
------------------------------------------------|
--7h9-----7h9-----7h9-----7h9-----7h9-----------|
------10------10------10------10-------10-------|
------------------------------------------------|
------------------------------------------------|

---------------------------------------------------------------------|
---------------------------------------------------------------------|
--12h14----12h14------12h14----12h14-----12h14-----------------------|
--------14--------14--------12-------12--------12--------------------|
---------------------------------------------------------------------|
---------------------------------------------------------------------|

-------------------------------------------------------------|
-------------------------------------------------------------|
-16h17----16h17-----16h17-----16h17------16h17---------------|
-------19-------19--------19---------19---------19-----------|
-------------------------------------------------------------|
-------------------------------------------------------------|

solo
-----------------------------------------------------------------------------|
-----------------------------16h15h13--15h13-----16h15h13--15h13-------------|
--15^-15^--15^h13--15^--15^-------------------15------------------15h13------|
-----------------------------------------------------------------------------|
-----------------------------------------------------------------------------|
-----------------------------------------------------------------------------|

-----------------18^--18^--17h18h17h18h17h18---18h20h18h20h18h20h18----------|
-----------------------------------------------------------------------------|
-----------------------------------------------------------------------------|
--15^h13---------------------------------------------------------------------|
---------15------------------------------------------------------------------|
-----------------------------------------------------------------------------|

i can't figure out the faster part


second solo
-----------------------------------------------------------------------------|
--10-12-13--15^---15h13--15h13/12--13h12h---------10-10-10-12-13-12-10-------|
-------------------------------------------12---------------------------12---|
-----------------------------------------------------------------------------|
-----------------------------------------------------------------------------|
-----------------------------------------------------------------------------|

---------------------------------------20^---17h19p17----------------------|
-------------------------20^17--20^17------------------20p17h20p17---------|
---12-12-12-14-14^(14)-----------------------------------------------------|
---------------------------------------------------------------------------|
---------------------------------------------------------------------------|
---------------------------------------------------------------------------|


---17h19p17-----------------------------------------------------------------|
------------20p17h20p17----20p17h20p17------------20p17h20p17---------------|
----------------------------------------19p17h19----------------19p17h19----|
----------------------------------------------------------------------------|
----------------------------------------------------------------------------|
----------------------------------------------------------------------------|

--------------------------------|
--10-10-10--12-13-12-10---------|
------------------------12------|
--------------------------------|
--------------------------------|
--------------------------------|

after the solo it just repeats, listen to the song for structure
Добавлено: 07.07.2012
Другие материалы по этой песне:

Страница создана 21.04.2012
http://primanota.ru/arch-enemy/in-this-shallow-grave-chords.htm
Привет, Гость.
Предлагаем пройти революционный курс по гитаре.
Подарок от PrimaNota.Ru, забирай!