PrimaNota.ru - самый крупный в мире бесплатный архив песенных текстов, аккордов, табулатур и нот


Arch Enemy - Exist To Exit - текст песни, таба, видео

Регистрация Запомнить меня
Войти через:  Facebook Google Twitter Vk Yandex Mail.ru

Arch Enemy - Exist To Exit - текст песни, таба, видео

Печатать
Просмотров: 180
Авторы музыки: Daniel Erlandsson, Michael Amott, Christopher Amott
Авторы текста: Michael Amott, Angela Gossow
As recorded by Arch Enemy
(From the 2003 Album ANTHEMS OF REBELLION)

Transcribed by SoggieMufin
        

Words and Music by Arch Enemy

Gtr I (C F Bb Eb G C) - 'Untitled'
Gtr II (C F Bb Eb G C) - 'Untitled'
Gtr III (C F Bb Eb G C) - 'Untitled'
Gtr IV (C F Bb Eb G C) - 'Untitled'
Gtr V (C F Bb Eb G C) - 'Untitled'
Gtr VI (C F Bb Eb G C) - 'Aahs'

 Intro
  Q=140
  N.C.
 4/4
  Gtr IV
                             <
   W            W            W           +W
|-----------|-------------|-12--------|-(12)----|
|-----------|-------------|-----------|---------|
|-----------|-------------|-----------|---------|
|-----------|-------------|-----------|---------|
|-----------|-------------|-----------|---------|
|-----------|-------------|-----------|---------|
|
| Gtr VI
|  <            >
|  ~~~~~~~~~~~~~~~~
|  W           +W            W            W
|-13--------|-(13)--------|-----------|---------|
|-----------|-------------|-----------|---------|
|-----------|-------------|-----------|---------|
|-----------|-------------|-----------|---------|
|-----------|-------------|-----------|---------|
|-----------|-------------|-----------|---------|


     +W                   +H.            +E      +E
||--(12)---------------|-(12)-----------(12)b13-(12)-|
||o--------------------|-----------------------------|
||---------------------|-----------------------------|
||---------------------|-----------------------------|
||o--------------------|-----------------------------|
||---------------------|-----------------------------|
|
|   Gtr III
|     E  E E E E E E E     E  E E E E E   E       E
||---------------------|-----------------------------|
||o--------------------|-----------------------------|
||---------------------|-----------------------------|
||---------2-----3-----|---5------6-------5-------3--|
||o------2-----2-----2-|--------2-----2--------------|
||----0------0-----0---|------0-----0----------------|


   +W                      +H.                +E        +E       6x
|-(12)b13---------------|-(12)pb13-----------(12)b13.5-(12)b13---||
|-----------------------|---------------------------------------o||
|-----------------------|----------------------------------------||
|-----------------------|----------------------------------------||
|-----------------------|---------------------------------------o||
|-----------------------|----------------------------------------||
|
|   E     E E E E E E E     E      E E E E E   E         E       6x
|-----------------------|----------------------------------------||
|-----------------------|---------------------------------------o||
|-----------------------|----------------------------------------||
|-----------2-----3-----|---5----------6-------5---------3-------||
|---------2-----2-----2-|------------2-----2--------------------o||
|---0---------0-----0---|----------0-----0-----------------------||


 Main Riff
  Gtrs I, II
  E E E E E E E E   E E E E E E E E   E E E E E E E E   E E E E E E E E
|-----------------|-----------------|-----------------|-----------------|
|-----------------|-----------------|-----------------|-----------------|
|-----------------|-----------------|-----------------|-----------------|
|-----------------|---------7-6-----|-----------------|-----------------|
|---5-7-8---5-7-8-|---5-7-8-----8-7-|---5-7-8---5-7-8-|-----2-3-2-------|
|-0-------0-------|-0---------------|-0-------0-------|-4-5-------5-4-1-|


                                                          Bb5   G5
  E E E E E E E E   S S E E E E E E E   E E E E E E E E    H    H
|-----------------|-------------------|-----------------|------------|
|-----------------|-------------------|-----------------|------------|
|-----------------|-4h5p4-------------|-----------------|------------|
|-----------------|-------7-6-7-6-3---|-----------------|------------|
|---5-7-8---5-7-8-|-----------------7-|---5-7-8---5-7-8-|-/8----5----|
|-0-------0-------|-------------------|-0-------0-------|-/6----3----|


  $
  N.C.
  E E E E E E E E   E E E E E E E E   E E E E E E E E   E E E E E E E E
|-----------------|-----------------|-----------------|-----------------|
|-----------------|-----------------|-----------------|-----------------|
|-----------------|-----------------|-----------------|-----------------|
|-----------------|---------7-6-----|-----------------|-----------------|
|---5-7-8---5-7-8-|---5-7-8-----8-7-|---5-7-8---5-7-8-|-----2-3-2-------|
|-0-------0-------|-0---------------|-0-------0-------|-4-5-------5-4-1-|


                                                             Bb5   G5
  Gtr I
  E E E E E E E E   S S E  E E  E E E  E   E E E E E E E E    H    H
|-----------------|----------------------|-----------------|------------|
|-----------------|----------------------|-----------------|------------|
|-----------------|-7h9p7----------------|-----------------|------------|
|-----------------|-------10-9-10-9-7----|-----------------|------------|
|---5-7-8---5-7-8-|-------------------11-|---5-7-8---5-7-8-|-/8----5----|
|-0-------0-------|----------------------|-0-------0-------|-/6----3----|
|
| Gtr II
| E E E E E E E E   S S E  E E  E E E  E   E E E E E E E E    H    H
|-----------------|----------------------|-----------------|------------|
|-----------------|----------------------|-----------------|------------|
|-----------------|-4h5p4----------------|-----------------|------------|
|-----------------|--------7-6--7-6-3----|-----------------|------------|
|---5-7-8---5-7-8-|--------------------7-|---5-7-8---5-7-8-|-/8----5----|
|-0-------0-------|----------------------|-0-------0-------|-/6----3----|


 Verse
  N.C.
  Gtrs I, II
  PM|   PM|   PM|     PM|   PM|       PM|   PM|   PM|     PM|   PM|
  E E E E E E E E   E E E E E E E E   E E E E E E E E   E E E E E E E E
|-----------------|-----------------|-----------------|-----------------|
|-----------------|-----------------|-----------------|-----------------|
|-----------------|-----------------|-----------------|-----------------|
|-----2-----3-----|-5-----6-----5-3-|-----2-----3-----|-5-----6-----5-3-|
|---2-----2-----2-|-----2-----2-----|---2-----2-----2-|-----2-----2-----|
|-0-----0-----0---|---0-----0-------|-0-----0-----0---|---0-----0-------|


                                                               To Coda
  PM|   PM|   PM|     PM|   PM|       PM|   PM|   PM|     PM|   PM|
  E E E E E E E E   E E E E E E E E   E E E E E E E E   E E E E E E E E
|-----------------|-----------------|-----------------|-----------------|
|-----------------|-----------------|-----------------|-----------------|
|-----------------|-----------------|-----------------|-----------------|
|-----2-----3-----|-5-----6-----5-3-|-----2-----3-----|-5-----6-----5-3-|
|---2-----2-----2-|-----2-----2-----|---2-----2-----2-|-----2-----2-----|
|-0-----0-----0---|---0-----0-------|-0-----0-----0---|---0-----0-------|


    E
    Gtrs IV, V
     ~~~~~~~~~~~~~~~~~~~~~~~~~~~~~~~~~~~~~~
     W                  +W
||--16---------------|-(16)---------------|
||o-17---------------|-(17)---------------|
||-------------------|--------------------|
||-------------------|--------------------|
||o------------------|--------------------|
||-------------------|--------------------|
|
|   Gtrs I, II
|    PM|   PM|   PM|        PM|   PM|
|    E E E E E E E E     E  E E E E E E E
||-------------------|--------------------|
||o------------------|--------------------|
||-------------------|--------------------|
||-------2-----3-----|---5------6-----5-3-|
||o----2-----2-----2-|--------2-----2-----|
||---0-----0-----0---|------0-----0-------|


  F
 ~~~~~~~~~~~~~~~~~~~~~~~~~
   W                  +W
|-17---------------|-(17)-----------------||
|-18---------------|-(18)----------------o||
|------------------|----------------------||
|------------------|----------------------||
|------------------|---------------------o||
|------------------|----------------------||
|
|  PM|   PM|   PM|        PM|   PM|
|  E E E E E E E E     E  E E E E E E E
|------------------|----------------------||
|------------------|---------------------o||
|------------------|----------------------||
|------2-----3-----|---5------6-----5-3---||
|----2-----2-----2-|--------2-----2------o||
|--0-----0-----0---|------0-----0---------||


   Chorus
    N.C.
    Gtrs I, II
    PM----------------------------------------------|
    |-3-| |-3-| |-3-| |-3-|   |-3-| |-3-| |-3-| |-3-|
    E E E E E E E E E E E E   E E E E E E E E E E E E
||--------------------------|--------------------------|
||o-------------------------|--------------------------|
||--------------------------|--------------------------|
||--------------------------|--------------------------|
||o-------2-----------2-----|-------1-----------1------|
||--2-3-5---5-3-2-3-5---5-3-|-1-2-4---4-2-1-2-4---4-2--|


                            1.,2.
  PM--|   PM|   PM|   PM|      PM|   PM|
  |-3-| |-3-| |-3-| |-3-|    |-3-| |-3-|
  E E E E E E E E E E E E    E E E E E E Q     Q      3x
|-------------------------|---------------------------||
|-------------------------|--------------------------o||
|-------------------------|---------------------------||
|-------------------------|--------------------6tr7---||
|-------5-----7-----8-----|-10-----8-----7tr8--------o||
|-0-0-0---0-0---0-0---0-0-|----0-0---0-0--------------||


  3.
                                     D.S. al Coda
                               G5         F#5  F5
     PM|   PM|
   |-3-| |-3-|
   E E E E E E Q      Q        W          H    H
|----------------------------|----------|-----------|
|---------------------9tr10--|----------|-----------|
|--------------9tr10---------|----------|-----------|
|----------------------------|----------|-----------|
|-10-----8-------------------|-5--------|-4----3----|
|----0-0---0-0---------------|-3--------|-2----1----|


 (Second half of verse II)
  &
  N.C.
  PM|   PM|   PM|     PM|   PM|       PM|   PM|   PM|     PM|   PM|
  E E E E E E E E   E E E E E E E E   E E E E E E E E   E E E E E E E E
|-----------------|-----------------|-----------------|-----------------|
|-----------------|-----------------|-----------------|-----------------|
|-----------------|-----------------|-----------------|-----------------|
|-----2-----3-----|-5-----6-----5-3-|-----2-----3-----|-5-----6-----5-3-|
|---2-----2-----2-|-----2-----2-----|---2-----2-----2-|-----2-----2-----|
|-0-----0-----0---|---0-----0-------|-0-----0-----0---|---0-----0-------|


  PM|   PM|   PM|     PM|   PM|       PM|   PM|   PM|     PM|
  E E E E E E E E   E E E E E E E E   E E E E E E E E   E E E E H
|-----------------|-----------------|-----------------|---------------|
|-----------------|-----------------|-----------------|---------------|
|-----------------|-----------------|-----------------|---------------|
|-----2-----3-----|-5-----6-----5-3-|-----2-----3-----|-5-----6-------|
|---2-----2-----2-|-----2-----2-----|---2-----2-----2-|-----2---x/----|
|-0-----0-----0---|---0-----0-------|-0-----0-----0---|---0-----x/----|


   Chorus
    PM----------------------------------------------|
    |-3-| |-3-| |-3-| |-3-|   |-3-| |-3-| |-3-| |-3-|
    E E E E E E E E E E E E   E E E E E E E E E E E E
||--------------------------|--------------------------|
||o-------------------------|--------------------------|
||--------------------------|--------------------------|
||--------------------------|--------------------------|
||o-------2-----------2-----|-------1-----------1------|
||--2-3-5---5-3-2-3-5---5-3-|-1-2-4---4-2-1-2-4---4-2--|


                           1.,2.
  PM--|   PM|   PM|   PM|      PM|   PM|
  |-3-| |-3-| |-3-| |-3-|    |-3-| |-3-|
  E E E E E E E E E E E E    E E E E E E Q     Q      3x
|-------------------------|---------------------------||
|-------------------------|--------------------------o||
|-------------------------|---------------------------||
|-------------------------|--------------------6tr7---||
|-------5-----7-----8-----|-10-----8-----7tr8--------o||
|-0-0-0---0-0---0-0---0-0-|----0-0---0-0--------------||


  3.
                               G5         F#5  F5
     PM|   PM|
   |-3-| |-3-|
   E E E E E E Q      Q        W          H    H
|----------------------------|----------|-----------|
|---------------------9tr10--|----------|-----------|
|--------------9tr10---------|----------|-----------|
|----------------------------|----------|-----------|
|-10-----8-------------------|-5--------|-4----3----|
|----0-0---0-0---------------|-3--------|-2----1----|


 Bridge/Solo
  E5
  PM----|   PM----|     PM----|   PM----|       PM----|   PM----|
  |-3-| |3| |-3-| |3|   |-3-| |3| |-3-| |3|     |-3-| |3| |-3-| |3|
  E E E E Q E E E E Q   E E E E Q E E E E Q     E E E E Q E E E E Q  4x
|---------------------|---------------------||-----------------------||
|---------------------|---------------------||o---------------------o||
|---------------------|---------------------||-----------------------||
|---------------------|---------------------||-----------------------||
|-2-2-2-2---2-2-2-2---|-2-2-2-2---2-2-2-2---||o-2-2-2-2---2-2-2-2---o||
|-0-0-0-0---0-0-0-0---|-0-0-0-0---0-0-0-0---||--0-0-0-0---0-0-0-0----||


  Gtr IV
   W                      H          H
|-12-------------------|-13---------10---------|
|----------------------|-----------------------|
|--9-------------------|-10----------7---------|
|----------------------|-----------------------|
|--7-------------------|--8----------5---------|
|----------------------|-----------------------|
|  W                      H          H
|
| Gtrs I, II
|  PM----|   PM----|      PM----|    PM----|
|  |-3-| |3| |-3-| |3|    |-3-| |3|  |-3-| |3|
|  E E E E Q E E E E Q    E E E E Q  E E E E Q
|----------------------|-----------------------|
|----------------------|-----------------------|
|----------------------|-----------------------|
|----------------------|-----------------------|
|--2-2-2-2---2-2-2-2---|--2-2-2-2----2-2-2-2---|
|--0-0-0-0---0-0-0-0---|--0-0-0-0----0-0-0-0---|


                                  Gtr V
   H.                Q      W
|-12----------------17---|-16-----------------------10-|
|------------------------|--------------------10-12----|
|--9----------------14---|-13-----4s==9-10-13----------|
|------------------------|-----------------------------|
|--7----------------12---|-11--------------------------|
|------------------------|-----------------------------|
|  H.                Q      Q     Q   E  E  E  E  E  E
|                                     |--3--|  |--3--|
|
|  PM-----|   PM----|       PM----|   PM------|
|  |-3--| |3| |-3-|  |3|    |-3-| |3| |--3--|  |3-|
|  E  E E E Q E E E  E Q    E E E E Q E  E  E  E  Q
|------------------------|-----------------------------|
|------------------------|-----------------------------|
|------------------------|-----------------------------|
|------------------------|-----------------------------|
|--2--2-2-2---2-2-2--2---|--2-2-2-2---2--2--2--2-------|
|--0--0-0-0---0-0-0--0---|--0-0-0-0---0--0--0--0-------|


   W                         H              H
|-10b12-------------------|-10pb13r========10---------|
|-------------------------|---------------------------|
|-------------------------|---------------------------|
|-------------------------|---------------------------|
|-------------------------|---------------------------|
|-------------------------|---------------------------|
|
|  PM-------|   PM----|      PM--------|    PM----|
|  |--3---| |3| |-3-| |3|    |---3---| |3|  |-3-| |3|
|  E    E E E Q E E E E Q    E     E E E Q  E E E E Q
|-------------------------|---------------------------|
|-------------------------|---------------------------|
|-------------------------|---------------------------|
|-------------------------|---------------------------|
|--2----2-2-2---2-2-2-2---|--2-----2-2-2----2-2-2-2---|
|--0----0-0-0---0-0-0-0---|--0-----0-0-0----0-0-0-0---|


  Gtr IV
   |------6-------|  |------6-------|  |------6-------|  |------6-------|
   S  S  S  S  S  S  S  S  S  S  S  S  S  S  S  S  S  S  S  S  S  S  S  S
|-------17-19-20-19-17----19-17-------17----------------------------------|
|-18-21----------------21-------21-18----21-18-17-21-18-17----18-17-------|
|----------------------------------------------------------19-------19-17-|
|-------------------------------------------------------------------------|
|-------------------------------------------------------------------------|
|-------------------------------------------------------------------------|
|
| Gtr V
|  |------6-------|  |------6-------|  |------6-------|  |------6-------|
|  S  S  S  S  S  S  S  S  S  S  S  S  S  S  S  S  S  S  S  S  S  S  S  S
|----------16-17-16-------------------------------------------------------|
|-15-17-18----------18-17-21-18-17----18-17-------17----------------------|
|----------------------------------19-------19-17----19-17-16-19-17-16----|
|----------------------------------------------------------------------19-|
|-------------------------------------------------------------------------|
|-------------------------------------------------------------------------|
|
| Gtrs I, II
|  PM---------------|                  PM---------------|
|  |-----3-----|     |--3--|           |-----3-----|     |--3--|
|  E     E     E     E     Q           E     E     E     E     Q
|-------------------------------------------------------------------------|
|-------------------------------------------------------------------------|
|-------------------------------------------------------------------------|
|-------------------------------------------------------------------------|
|--2-----2-----2-----2-----------------2-----2-----2-----2----------------|
|--0-----0-----0-----0-----------------0-----0-----0-----0----------------|


   |------6-------|  |------6-------|  |------6-------|  |------6-------|
   S  S  S  S  S  S  S  S  S  S  S  S  S  S  S  S  S  S  S  S  S  S  S  S
|-------------------------------------------------------------------------|
|-17----------------------------------------------------------------------|
|----19-17-16-19-17-16----17-16-------16----------------------------------|
|----------------------19-------19-18----19-18-15-19-18-16----18-15-------|
|----------------------------------------------------------19-------19-17-|
|-------------------------------------------------------------------------|
|
|  |------6-------|  |------6-------|  |------6-------|  |------6-------|
|  S  S  S  S  S  S  S  S  S  S  S  S  S  S  S  S  S  S  S  S  S  S  S  S
|-------------------------------------------------------------------------|
|-------------------------------------------------------------------------|
|-17-16-------16----------------------------------------------------------|
|-------19-18----19-18-15-19-18-16----18-15-------15----------------------|
|----------------------------------19-------19-17----19-17-15-19-17-15----|
|----------------------------------------------------------------------19-|
|
|  PM---------------|                  PM---------------|
|  |-----3-----|     |--3--|           |-----3-----|     |--3--|
|  E     E     E     E     Q           E     E     E     E     Q
|-------------------------------------------------------------------------|
|-------------------------------------------------------------------------|
|-------------------------------------------------------------------------|
|-------------------------------------------------------------------------|
|--2-----2-----2-----2-----------------2-----2-----2-----2----------------|
|--0-----0-----0-----0-----------------0-----0-----0-----0----------------|


  G5             F#5      F5
  Gtrs IV, V
   W              H        H
|--------------|----------------|
|-15b17--------|-15b18r===15----|
|--------------|----------------|
|--------------|----------------|
|--------------|----------------|
|--------------|----------------|
|
| Gtrs I, II
|  W              H        H
|--------------|----------------|
|--------------|----------------|
|--------------|----------------|
|--------------|----------------|
|--5-----------|--4--------3----|
|--3-----------|--2--------1----|


  N.C.
  Gtr I
  PM----------------------------------------------|
  |-3--| |-3--| |-3--| |-3--|   |-3-| |-3-| |-3-| |3|
  E E  E E  E E E E  E E  E E   E E E E E E E E E E Q
|-----------------------------|-----------------------|
|-----------------------------|-----------------------|
|--------7-------------7------|-------6-----------6---|
|-7-9-10---10-9-7-9-10---10-9-|-6-8-9---9-7-6-7-9-----|
|-----------------------------|-----------------------|
|-----------------------------|-----------------------|
|
| Gtr II
| PM--------------------------------------------|
| |-3--| |-3--| |-3--| |-3--|   |-3-| |-3-| |-3-| |3|
| E E  E E  E E E E  E E  E E   E E E E E E E E E E Q
|--------7-------------7------|-------6-----------6---|
|-7-8-10---10-8-7-8-10---10-8-|-6-7-9---9-7-6-7-9-----|
|-----------------------------|-----------------------|
|-----------------------------|-----------------------|
|-----------------------------|-----------------------|
|-----------------------------|-----------------------|


   Chorus
    Gtrs I, II
    PM--|   PM|   PM|   PM|      PM|   PM|
    |-3-| |-3-| |-3-| |-3-|    |-3-| |-3-|
    E E E E E E E E E E E E    E E E E E E Q     Q
||--------------------------|--------------------------|
||o-------------------------|--------------------------|
||--------------------------|--------------------------|
||--------------------------|--------------------6tr7--|
||o-------5-----7-----8-----|-10-----8-----7tr8--------|
||--0-0-0---0-0---0-0---0-0-|----0-0---0-0-------------|


  PM----------------------------------------------|
  |-3-| |-3-| |-3-| |-3-|   |-3-| |-3-| |-3-| |-3-|
  E E E E E E E E E E E E   E E E E E E E E E E E E
|-------------------------|--------------------------||
|-------------------------|-------------------------o||
|-------------------------|--------------------------||
|-------------------------|--------------------------||
|-------2-----------2-----|-------1-----------1-----o||
|-2-3-5---5-3-2-3-5---5-3-|-1-2-4---4-2-1-2-4---4-2--||


  N.C.
  PM--|   PM|   PM|   PM|      PM|   PM|
  |-3-| |-3-| |-3-| |-3-|    |-3-| |-3-|
  E E E E E E E E E E E E    E E E E E E Q      Q
|-------------------------|----------------------------|
|-------------------------|---------------------9tr10--|
|-------------------------|--------------9tr10---------|
|-------------------------|----------------------------|
|-------5-----7-----8-----|-10-----8-------------------|
|-0-0-0---0-0---0-0---0-0-|----0-0---0-0---------------|


  G5         F#5  F5
  W          H    H
|----------|-----------|
|----------|-----------|
|----------|-----------|
|----------|-----------|
|-5--------|-4----3----|
|-3--------|-2----1----|


  E5
  Gtr I
  W          +W           +W           +W
|----------|------------|------------|--------|
|----------|------------|------------|--------|
|----------|------------|------------|--------|
|-2--------|-(2)--------|-(2)--------|-(2)----|
|-2--------|-(2)--------|-(2)--------|-(2)----|
|-0--------|-(0)--------|-(0)--------|-(0)----|
|
| Gtr II
| W          +W           +W           +W
|----------|------------|------------|--------|
|----------|------------|------------|--------|
|----------|------------|------------|--------|
|-9--------|-(9)--------|-(9)--------|-(9)----|
|-7--------|-(7)--------|-(7)--------|-(7)----|
|-0--------|-(0)--------|-(0)--------|-(0)----|


 Outro
   PM---|   PM|   PM|   PM|       PM|   PM|
   |-3--| |-3-| |-3-| |-3-|    |-3--| |-3-|
   E  E E E E E E E E E E E    E  E E E E E Q     Q
|---------------------------|---------------------------|
|---------------------------|---------------------------|
|---------------------------|---------------------------|
|---------------------------|---------------------6tr7--|
|---------5-----7-----8-----|-10------8-----7tr8--------|
|--0--0-0---0-0---0-0---0-0-|-----0-0---0-0-------------|
|
|  >
| +W                          +W
|---------------------------|---------------------------|
|---------------------------|---------------------------|
|---------------------------|---------------------------|
|-(9)-----------------------|-(9)-----------------------|
|-(7)-----------------------|-(7)-----------------------|
|-(0)-----------------------|-(0)-----------------------|


                                                  N.C.
   PM---|   PM|   PM|   PM|       PM|   PM|
   |-3--| |-3-| |-3-| |-3-|    |-3--| |-3-|
   E  E E E E E E E E E E E    E  E E E E E Q     q
|---------------------------|------------------------|
|---------------------------|------------------------|
|---------------------------|------------------------|
|---------------------------|---------------------6--|
|---------5-----7-----8-----|-10------8-----7tr8-----|
|--0--0-0---0-0---0-0---0-0-|-----0-0---0-0----------|
|
| +W                          +H.                 Q
|---------------------------|------------------------|
|---------------------------|------------------------|
|---------------------------|------------------------|
|-(9)-----------------------|-(9)--------------------|
|-(7)-----------------------|-(7)--------------------|
|-(0)-----------------------|-(0)--------------------|


    Gtrs I, II
    PM--|   PM|   PM|   PM--------|   PM|   PM|   PM|
    |-3-| |-3-| |-3-| |-3-|   |-3-| |-3-| |-3-| |-3-|
    E E E E E E E E E E E E   E E E E E E E E E E E E
||--------------------------|--------------------------|
||o-------------------------|--------------------------|
||--------------------------|--------------------------|
||--------------------------|--------------------------|
||o-------5-----7-----8-----|-------5-----7-----8------|
||--0-0-0---0-0---0-0---0-0-|-0-0-0---0-0---0-0---0-0--|


  PM--|   PM|   PM|   PM|      PM|   PM|
  |-3-| |-3-| |-3-| |-3-|    |-3-| |-3-|
  E E E E E E E E E E E E    E E E E E E Q     Q
|-------------------------|---------------------------||
|-------------------------|--------------------------o||
|-------------------------|---------------------------||
|-------------------------|--------------------6tr7---||
|-------5-----7-----8-----|-10-----8-----7tr8--------o||
|-0-0-0---0-0---0-0---0-0-|----0-0---0-0--------------||


    Gtr VI
    Q      Q      Q      Q       Q      Q      Q      Q
||-----------------------------|-----------------------------|
||o-------15-----17-----18-----|-------15-----17-----18------|
||-----------------------------|-----------------------------|
||-----------------------------|-----------------------------|
||o----------------------------|-----------------------------|
||-----------------------------|-----------------------------|
|
|   Gtrs I, II
|   PM--|    PM|    PM|    PM--------|    PM|    PM|    PM|
|   |-3-|  |-3-|  |-3-|  |-3-|   |-3-|  |-3-|  |-3-|  |-3-|
|   E E E  E E E  E E E  E E E   E E E  E E E  E E E  E E E
||-----------------------------|-----------------------------|
||o----------------------------|-----------------------------|
||-----------------------------|-----------------------------|
||-----------------------------|-----------------------------|
||o--------5------7------8-----|--------5------7------8------|
||--0-0-0----0-0----0-0----0-0-|-0-0-0----0-0----0-0----0-0--|


  Q      Q      Q      Q        W
|----------------------------|---------------------------||
|-------15-----17-----18-----|--------------------------o||
|----------------------------|---------------------------||
|----------------------------|---------------------------||
|----------------------------|--------------------------o||
|----------------------------|---------------------------||
|
| PM--|    PM|    PM|    PM|      PM|   PM|
| |-3-|  |-3-|  |-3-|  |-3-|    |-3-| |-3-|
| E E E  E E E  E E E  E E E    E E E E E E Q     Q
|----------------------------|---------------------------||
|----------------------------|--------------------------o||
|----------------------------|---------------------------||
|----------------------------|--------------------6tr7---||
|--------5------7------8-----|-10-----8-----7tr8--------o||
|-0-0-0----0-0----0-0----0-0-|----0-0---0-0--------------||


          D5     C/E    Dm             D5     C/E    Dm
    Q      Q      Q      Q       Q      Q      Q      Q
||--------17-----15-----17-----|-------17-----15-----17------|
||o-------15-----17-----18-----|-------15-----17-----18------|
||-----------------------------|-----------------------------|
||-----------------------------|-----------------------------|
||o----------------------------|-----------------------------|
||-----------------------------|-----------------------------|
|
|   PM--|    PM|    PM|    PM--------|    PM|    PM|    PM|
|   |-3-|  |-3-|  |-3-|  |-3-|   |-3-|  |-3-|  |-3-|  |-3-|
|   E E E  E E E  E E E  E E E   E E E  E E E  E E E  E E E
||-----------------------------|-----------------------------|
||o----------------------------|-----------------------------|
||-----------------------------|-----------------------------|
||-----------------------------|-----------------------------|
||o--------5------7------8-----|--------5------7------8------|
||--0-0-0----0-0----0-0----0-0-|-0-0-0----0-0----0-0----0-0--|


        D5     C/E    Dm
  Q      Q      Q      Q        W                        6x
|-------17-----15-----17-----|---------------------------||
|-------15-----17-----18-----|--------------------------o||
|----------------------------|---------------------------||
|----------------------------|---------------------------||
|----------------------------|--------------------------o||
|----------------------------|---------------------------||
|
| PM--|    PM|    PM|    PM|      PM|   PM|
| |-3-|  |-3-|  |-3-|  |-3-|    |-3-| |-3-|
| E E E  E E E  E E E  E E E    E E E E E E Q     Q      6x
|----------------------------|---------------------------||
|----------------------------|--------------------------o||
|----------------------------|---------------------------||
|----------------------------|--------------------6tr7---||
|--------5------7------8-----|-10-----8-----7tr8--------o||
|-0-0-0----0-0----0-0----0-0-|----0-0---0-0--------------||


  N.C.
     Gtr V
      \1/      \1/        \1/      \1/
  Q   Q    Q   Q      Q   Q    Q   Q
|-------------------|-------------------*|
|----<5>------<5>---|----<5>------<5>---*|
|-------------------|-------------------*|
|-------------------|-------------------*|
|-------------------|-------------------*|
|-------------------|-------------------*|



Duration Legend
---------------
W - whole; H - half; Q - quarter; E - 8th; S - 16th; T - 32nd; X - 64th; a - acciaccatura
+ - note tied to previous; . - note dotted; .. - note double dotted
Uncapitalized letters represent notes that are staccato (1/2 duration)
Irregular groupings are notated above the duration line
Duration letters will always appear directly above the note/fret number it represents the
duration for.  Duration letters with no fret number below them represent rests.  Multi-
bar rests are notated in the form Wxn, where n is the number of bars to rest for.  Low
melody durations appear below the staff

Tablature Legend
----------------
 h   - hammer-on
 p   - pull-off
 b   - bend
 pb  - pre-bend
 r   - bend release (if no number after the r, then release immediately)
 /\  - slide into or out of (from/to "nowhere")
 s   - legato slide
 S   - shift slide
 - natural harmonic
[n]  - artificial harmonic
n(n) - tapped harmonic
 ~   - vibrato
 tr  - trill
 T   - tap
 TP  - trem. picking
 PM  - palm muting
\n/  - tremolo bar dip; n = amount to dip
 \n  - tremolo bar down
 n/  - tremolo bar up
/n\  - tremolo bar inverted dip
 =   - hold bend; also acts as connecting device for hammers/pulls
 <> - volume swell (louder/softer)
 x   - on rhythm slash represents muted slash
 o   - on rhythm slash represents single note slash

Misc Legend
-----------
 |  - bar
||  - double bar
||o - repeat start
o|| - repeat end
*|  - double bar (ending)
 :  - bar (freetime)
 $  - Segno
 &  - Coda
Tempo markers -  = BPM(8/16=s8/s16), where s8 = swing 8ths, s16 = swing 16ths

Добавлено: 12.03.2012
Другие материалы по этой песне:

Страница создана 12.03.2012
http://primanota.ru/arch-enemy/exist-to-exit-chords.htm
Привет, Гость.
Предлагаем пройти революционный курс по гитаре.
Подарок от PrimaNota.Ru, забирай!