PrimaNota.ru - самый крупный в мире бесплатный архив песенных текстов, аккордов, табулатур и нот


Apocalyptica - Mars - аккорды и текст, видео

Регистрация Запомнить меня
Войти через:  Facebook Google Twitter Vk Yandex Mail.ru

Apocalyptica - Mars - аккорды и текст, видео

Печатать
Просмотров: 154
Mars
Apocalyptica
e|----2---2---2----|
b|------3---3---3--| Repeat x4
g|4----------------|
d|-----------------|
a|don't use
E|don't use
 
e|----2---2---2----|
b|------3---3---3--| Repeat x4
g|-----------------|
d|5----------------|
a|don't use
E|don't use

e|----2---2---2----|
b|------3---3---3--| Repeat x4
g|4----------------|
d|-----------------|
a|don't use
E|don't use

e|----2---2---2----|----2---2---2----|----2---2---2----|----2---2---2----|
b|------3---3---3--|------3---3---3--|------3---3---3--|------3---3---3--|
g|-----------------|4----------------|-----------------|4----------------|
d|5----------------|-----------------|4----------------|-----------------|
a|don't use
E|don't use

e|----2---2---2----|----2---2---2----|----2---2---2----|----2---2---2----|
b|------3---3---3--|------3---3---3--|------3---3---3--|------3---3---3--|
g|-----------------|4----------------|-----------------|4----------------|
d|5----------------|-----------------|4----------------|-----------------|
a|don't use
E|don't use

e|----2---2---2----|----2---2---2----|----2---2---2-----2--|
b|------3---3---3--|------3---3---3--|------3---3---3---3--|
g|-----------------|-----------------|4-----------------4--|
d|5----------------|4----------------|---------------------|
a|don't use
E|don't use


Amp boost (overdrive) on

e|don't use
b|don't use
g|-------------------------------|
d|2-2-2-2-2-2-2-2-2-2-2-2-0-0-0-0| Repeat x3
a|0-0-0-0-0-0-0-0-3-3-3-3-2-2-2-2|
E|don't use

e|don't use
b|don't use
g|-------------------------------|
d|2-2-2-2-2-2-2-2-2-2-2-2-0------|
a|0-0-0-0-0-0-0-0-3-3-3-3-2------|
E|don't use

e|don't use
b|don't use
g|2-2-2-2-2-2-2-2-2-2-2-2-0-0-0-0|
d|0-0-0-0-0-0-0-0-3-3-3-3-2-2-2-2| Repeat x3
a|-------------------------------|
E|don't use

e|don't use
b|don't use
g|2-2-2-2-2-2-2-2-2-2-2-2-0-0-0-0|
d|0-0-0-0-0-0-0-0-3-3-3-3-2-2-2-2|
a|-------------------------------|
E|don't use

e|don't use
b|don't use
g|-------------------------------|
d|2-2-2-2-2-2-2-2-2-2-2-2-0-0-0-0| Repeat x3
a|0-0-0-0-0-0-0-0-3-3-3-3-2-2-2-2|
E|don't use

e|don't use
b|don't use
g|-------------------------------|
d|2-2-2-2-2-2-2-2-2-2-2-2-0-0-0-0|
a|0-0-0-0-0-0-0-0-3-3-3-3-2-2-2-2|
E|don't use

e|don't use
b|don't use
g|-------------------------------|
d|0----------------2-------------|
a|0----------------2-------------|
E|don't use


Amp boost off

Repeat clean section (optional: added guitar part)


Opt. guitar (acoustic or electric on clean)

dropped D tuning

e|don't use
b|don't use
d|don't use
g|don't use
d|4-------|
a|2-------| Repeat x4
D|--------|

e|don't use
b|don't use
d|don't use
g|don't use
d|5-------|
a|5-------| Repeat x4
D|5-------|

e|don't use
b|don't use
d|don't use
g|don't use
d|4-------|
a|2-------| Repeat x4
D|--------|

e|don't use
b|don't use
d|don't use
g|don't use
d|5-------|4-------|4-------|4-------|
a|5-------|2-------|4-------|2-------| Repeat x2
D|5-------|--------|4-------|--------|

d|5-------|4-------|4-------|4-------|
a|5-------|4-------|2-------|2-------|
D|5-------|4-------|--------|--------|
Добавлено: 07.10.2013
Другие материалы по этой песне:
  • Аккорды и текст

Страница создана 07.10.2013
http://primanota.ru/apocalyptica/mars-chords.htm
Привет, Гость.
Предлагаем пройти революционный курс по гитаре.
Подарок от PrimaNota.Ru, забирай!