PrimaNota.ru - самый крупный в мире бесплатный архив песенных текстов, аккордов, табулатур и нот


Apocalyptica - Hope - текст песни, таба, видео

Регистрация Запомнить меня
Войти через:  Facebook Google Twitter Vk Yandex Mail.ru

Apocalyptica - Hope - текст песни, таба, видео

Печатать
Просмотров: 620
Авторы музыки: Eicca Toppinen

Hope - Apocalyptica

Tabbed by Alexz Stewart.

NOTE: This is not my tab! 
I wrote this using the tabs from the Guitar Pro version.
Don't worry, it's accurate. :]

Unfortunately for you, I do not know exact times for tabs. So
you'll have to do most of the timing by ear. Sorry about 

that.

This is very, very fun to play!
So enjoy!
~~~~~~~~~~~
Tab info..

Tuning: Dropped D
Time: 110 BMP
~~~~~~~~~~~

Guitar 2 Intro
e-|---------------|
B-|---------------|
G-|---------------| Repeat way more
D-|---------------|   than needed
A-|-0-----0-----0-|   (Best part)
E-|-0-0-0-0-0-0-0-|

Guitar 1 Intro (0:10-0:53)
e-|-----------------------------------------------------|
B-|-----------------------------------------------------|
G-|---------------------------5----7---8-5----7--8----5-|
D-|-7---7-8--7-5----7-------7----------------------8----|
A-|-----------------------------------------------------|
E-|-----------------------------------------------------|

e-|-----------------------------------------------------|
B-|-----------------------------------6--------8--11----|
G-|--------------5----7----5-8----7----------8----------|
D-|----7-----5-7----------------------------------------|
A-|-----------------------------------------------------|
E-|-----------------------------------------------------|

e-|------------------8----10-8-11--11-10--13-13-11-15---|
B-|-10----8-11-10-11------------------------------------|
G-|-----------------------------------------------------|
D-|-----------------------------------------------------|
A-|-----------------------------------------------------|
E-|-----------------------------------------------------|

e-|-----------------------------------------------------|
B-|-13----15---13----------15---13-----------15--13-----|
G-|---------------14--12------------14--12----------12--|
D-|-----------------------------------------------------|
A-|-----------------------------------------------------|
E-|-----------------------------------------------------|

e-|-----------------------------------------------------|
B-|-15--13----------15--16-13--------15---16------13----|
G-|--------12--14---------------14-----------15---------|
D-|-----------------------------------------------------|
A-|-----------------------------------------------------|
E-|-----------------------------------------------------|

e-|-------------------|
B-|-16---15---13---16-|
G-|-------------------|
D-|-------------------|
A-|-------------------|
E-|-------------------|

"Chorus" (0:56-1:29)

e-|----------------------------------------------------|
B-|-15---------------13-----15---13----16--15--15--13--|
G-|--------14---15-------------------------------------|
D-|----------------------------------------------------|
A-|----------------------------------------------------|
E-|----------------------------------------------------|

e-|----------------------------------------------------|
B-|----------15---13----------15--16-13---------15--16-|
G-|-14--12------------12--14----------------14---------|
D-|----------------------------------------------------|
A-|----------------------------------------------------|
E-|----------------------------------------------------|

e-|----------------------------------------------------|
B-|---13--16---15--13--16----15-----------13----15--13-|
G-|-15---------------------------14--15----------------|
D-|----------------------------------------------------|
A-|----------------------------------------------------|
E-|----------------------------------------------------|

e-|----------|
B-|---16--15-|
G-|----------|
D-|----------|
A-|----------|
E-|----------|

"Verse" (1:51-2:23)
(10 Seconds of intro is played before)
                 
                (Long Rest)
e-|------------------|---------------------------------|
B-|------------------|---------------------------------|
G-|-------------5/10-|---------------------------------|
D-|-3----------------|-4-------5------7------8------10-|
A-|------------------|---------------------------------|
E-|------------------|---------------------------------|

e-|-----------------------------------------------|
B-|-----------------------------------------------|
G-|-----------------------------------------------|
D-|-------4-------5------7------8---------10------|
A-|-----------------------------------------------|
E-|-----------------------------------------------|

"Pre-Chorus" (2:24-3-25)

e-|---------------------------------------------------|
B-|-15----13------------15---13-----------15--16-13---|
G-|------------14--12------------12---14--------------|
D-|---------------------------------------------------|
A-|---------------------------------------------------|
E-|---------------------------------------------------|

e-|-------15--16----13---16--15--13--16-|
B-|--14----------15---------------------|
G-|-------------------------------------| Repeat
D-|-------------------------------------| To end
A-|-------------------------------------|
E-|-------------------------------------|

Thank you!
Добавлено: 25.03.2012
Другие материалы по этой песне:

Страница создана 16.03.2012
http://primanota.ru/apocalyptica/hope-chords.htm
Привет, Гость.
Предлагаем пройти революционный курс по гитаре.
Подарок от PrimaNota.Ru, забирай!