PrimaNota.ru - самый крупный в мире бесплатный архив песенных текстов, аккордов, табулатур и нот


Apocalyptica - Moonspell - аккорды и текст, видео

Регистрация Запомнить меня
Войти через:  Facebook Google Twitter Vk Yandex Mail.ru

Apocalyptica - Moonspell - аккорды и текст, видео

Печатать
Просмотров: 149
Moonspell
Apocalyptica
Dropped D tuning, tune down 1/2 step
Acoustic or electric with boost off

e|don't use
b|don't use
g|don't use
d|----7---------7----7-|----5---------5----5-|
a|5------5-5--5---5----|3------3-3--3---3----|
D|---------------------|---------------------|

e|don't use
b|don't use
g|don't use
d|----7---------7----7-|---5----5-------5-----5-|
a|5------5-5--5---5----|3-----3----3--3----3----|
D|---------------------|------------------------|

e|don't use
b|don't use
g|don't use
d|---7----7-------7----7|---5----5-------5----5|
a|5-----5----5-5----5---|3-----3----3-3----3---|
D|----------------------|----------------------|

e|don't use
b|don't use
g|don't use
d|---7----8------7----7---|---5----5------4----5---|
a|5-----6-----5-----5----3|3-----3-----2-----3-----|
D|------------------------|------------------------|

e|don't use
b|don't use
g|-------------|-------------|-------------|----------------|
d|7-7-7-1--1-1-|7-7-7-1--1-1-|7-7-7-1--1-1-|5-5-5-5-3-3-3-3-|
a|5-5-5-1--1-1-|5-5-5-1--1-1-|5-5-5-1--1-1-|3-3-3-3-1-1-1-1-|
D|------1--1-1-|------1--1-1-|------1--1-1-|----------------|

e|don't use
b|don't use
g|-------------|-------------|-------------|6---------|
d|7-7-7-1--1-1-|7-7-7-1--1-1-|7-7-7-1--1-1-|4--5--3--3|
a|5-5-5-1--1-1-|5-5-5-1--1-1-|5-5-5-1--1-1-|---3--1--1|
D|------1--1-1-|------1--1-1-|------1--1-1-|----------|


e|don't use
b|don't use
g|------------|----------|------------|------------|
d|7---7--7-7-7|7---7--7--|1---1--1-1-1|1--1-1--1-1-|
a|5---5--5-5-5|5---5--5--|1---1--1-1-1|1--1-1--1-1-|
D|------------|----------|1---1--1-1-1|1--1-1--1-1-|


e|don't use
b|don't use
g|-----------|-----------|-----------|------------|
d|7--7--7-7--|1--1--7--7-|1--7--7-7-7|1-----------|
a|5--5--5-5--|1--1--5--5-|1--5--5-5-5|1-----------|
D|-----------|1--1-------|1----------|1-----------|


That was hard to write. It kicks ass, though.
Добавлено: 09.01.2014
Другие материалы по этой песне:
  • Аккорды и текст

Страница создана 09.01.2014
http://primanota.ru/apocalyptica/moonspell-chords.htm
Привет, Гость.
Предлагаем пройти революционный курс по гитаре.
Подарок от PrimaNota.Ru, забирай!