PrimaNota.ru - самый крупный в мире бесплатный архив песенных текстов, аккордов, табулатур и нот


Антониу Карлус Жобин - Gentle Rain - бас-таба, видео

Регистрация Запомнить меня
Войти через:  Facebook Google Twitter Vk Yandex Mail.ru

Антониу Карлус Жобин - Gentle Rain - бас-таба, видео

Печатать
Просмотров: 183
Уроки эстрадного вокала в Санкт-Петербурге
antonio carlos jobim_gentle rain

Basstab by Jan Bjorklund, Finland  jani_bjorklund@yahoo.se>
You are welcome to request for basstabs!
Fingering and positions as suggested by TablEdit, please use common sense!

TablEdited by Jan Bjorklund
Tuning : E A D G 	Time Signature: 4/4

  |       |       |       |          |       |       |       |         
||---------------------------------|---------------------------------||
|*----------------------------6----|-7-------------------------------||
|*------------6---7----------------|-------------6---7---------------||
||5--------------------------------|-------------------------0-------||

>1|       |       |       |          |       |       |       |         
|----------------------------------|----------------------------------|
|----------------------------------|-------------9---9----------------|
|-------------8---8-----------6----|-7--------------------------------|
|-7--------------------------------|-----------------------------6----|

  |       |       |       |          |       |       |       |         
|----------------------------------|---------7------------------------|
|----------------------------------|-5--------------------------------|
|-----------------5-----------5----|-------------5---------------9----|
|-5-----------5--------------------|-----------------8----------------|

  |       |       |       |          |       |       |       |         
|-----------------5-----------9----|-10--------------5----------------|
|-------------9--------------------|-------------9--------------------|
|-8--------------------------------|----------------------------------|
|----------------------------------|-------------------------8--------|

  |       |       |       |          |       |       |       |         
|-------------5---5----------------|----------------------------------|
|----------------------------------|----------------------------------|
|-9--------------------------------|-----------------9----------------|
|-----------------------------6----|-7-----------7---------------7----|

  |       |       |       |          |       |       |       |         
|----------------------------------|----------------------------------|
|-----------------8----------------|----------------------------------|
|-7-----------7---------------7----|-----------------7----------------|
|----------------------------------|-5-----------5---------------5----|

  |       |       |       |          |       |       |       |         
|----------------------------------|----------------------------------|
|-----------------6----------------|---------3-------2-----------2----|
|-5-----------5---------------5----|-2--------------------------------|
|----------------------------------|-------------1--------------------|

  |       |       |       |          |       |       |       |         
|----------------------------------|---------------------------------||
|----------------------------------|---------------------------------*|
|----------------------------------|-------------8---8---------------*|
|-5-----------5---5-----------5----|-6---------------------------6---||

>2|       |       |       |          |       |       |       |         
|----------------------------------|----------------------------------|
|----------------------------------|-----------------9----------------|
|-----------------8----------------|-7-----------7---------------7----|
|-7-----------7---------------7----|----------------------------------|

  |       |       |       |          |       |       |       |         
|----------------------------------|----------------------------------|
|-----------------------------6----|-5-----------5--------------------|
|-----------------5----------------|----------------------------------|
|-5-----------5--------------------|-----------------8-----------8----|

  |       |       |       |          |       |       |       |         
|-------------5--------------------|-------------5---5----------------|
|----------------------------------|----------------------------------|
|-8--------------------------------|-8--------------------------------|
|-----------------------------8----|-------------------------8--------|

  |       |       |       |          |       |       |       |         
|----------------------------------|----------------------------------|
|----------------------------------|----------------------------------|
|-9-----------9---9-----------9----|-------------9---9----------------|
|----------------------------------|-7---------------------------7----|

  |       |       |       |          |       |       |       |         
|----------------------------------|----------------------------------|
|----------------------------------|----------------------------------|
|-7-----------7---7-----------7----|-------------7---7----------------|
|----------------------------------|-5---------------------------9----|

  |       |       |       |          |       |       |       |         
|----------------------------------|----------------------------------|
|-------------6---6----------------|----------------------------------|
|-5--------------------------------|-----------------7----------------|
|-----------------------------6----|-7-----------7---------------6----|

  |       |       |       |          |       |       |       |         
|----------------------------------|----------------------------------|
|-----------------------------6----|-5--------------------------------|
|-----------------5----------------|----------------------------------|
|-5-----------5--------------------|-------------9---8-----------8----|

  |       |       |       |          |       |       |       |         
|----------------------------------|----------------------------------|
|----------------------------------|-------------5---5----------------|
|-8-----------8---8-----------8----|----------------------------------|
|----------------------------------|-8---------------------------8----|

  |       |       |       |          |       |       |       |         
|-------------5---5----------------|----------------------------------|
|----------------------------------|-----------------9----------------|
|-8---------------------------8----|-7-----------7---------------7----|
|----------------------------------|----------------------------------|

  |       |       |       |          |       |       |       |         
|----------------------------------|----------------------------------|
|----------------------------------|-------------9---9----------------|
|-------------7---7-----------6----|-7--------------------------------|
|-5--------------------------------|-----------------------------4----|

  |       |       |       |          |       |       |       |         
|----------------------------------|----------------------------------|
|----------------------------------|----------------------------------|
|-------------7---7----------------|-------------7---7----------------|
|-5---------------------------5----|-5-----------------------0--------|

  |       |       |       |          |       |       |       |         
|----------------------------------|----------------------------------|
|----------------------------------|-------------9---9----------------|
|----------------------------------|-7--------------------------------|
|-7-----------7---7-----------7----|-----------------------------6----|

  |       |       |       |          |       |       |       |         
|----------------------------------|----------------------------------|
|-------------------------7--------|-5-----------5-----------5--------|
|-----------------5----------------|----------------------------------|
|-5-----------5---------------5----|-----------------8-----------3----|

  |       |       |       |          |       |       |       |         
|-------------5---5----------------|-------------5---5----------------|
|----------------------------------|----------------------------------|
|-8---------------------------8----|-8---------------------------8----|
|----------------------------------|----------------------------------|

  |       |       |       |          |       |       |       |         
|-------------5---5----------------|----------------------------------|
|----------------------------------|----------------------------------|
|-9--------------------------------|-------------9---9----------------|
|-----------------------------6----|-7---------------------------7----|

  |       |       |       |          |       |       |       |         
|----------------------------------|----------------------------------|
|-----------------8----------------|-------------------------9--------|
|-7-----------7---------------7----|-----------------7----------------|
|----------------------------------|-7-----------7---------------7----|

  |       |       |       |          |       |       |       |         
|----------------------------------|----------------------------------|
|----------------------------------|----------------------------------|
|----------------------------------|-------------8---8----------------|
|-5-----------5---5-----------5----|-6---------------------------4----|

  |       |       |       |          |       |       |       |         
|----------------------------------|----------------------------------|
|----------------------------------|----------------------------------|
|-------------7---7----------------|-------------7---7----------------|
|-5---------------------------5----|-5---------------------------5----|

  |       |       |       |          |       |       |       |         
|----------------------------------|----------------------------------|
|----------------------------------|-----------------9----------------|
|-----------------8----------------|-7-----------7---------------7----|
|-7-----------7---------------7----|----------------------------------|

  |       |       |       |          |       |       |       |         
|----------------------------------|---------7------------------------|
|-----------------------------6----|-5--------------------------------|
|---------7-------5----------------|-------------5--------------------|
|-5-----------0--------------------|-----------------8-----------8----|

  |       |       |       |          |       |       |       |         
|----------------------------------|----------------------------------|
|-------------8---8----------------|----------------------------------|
|-7--------------------------------|-------------7---7----------------|
|-----------------------------6----|-5---------------------------9----|

  |       |       |       |          |       |       |       |         
|----------------------------------|----------------------------------|
|-----------------6----------------|----------------------------------|
|-5-----------5---------------5----|-----------------7-----------7----|
|----------------------------------|-7-----------7--------------------|

  |       |       |       |          |       |       |       |         
|----------------------------------|----------------------------------|
|----------------------------------|-5-----------5--------------------|
|-----------------5-----------5----|----------------------------------|
|-5-----------5--------------------|-----------------8-----------8----|

  |       |       |       |          |       |       |       |         
|----------------------------------|----------------------------------|
|----------------------------------|-----------------5----------------|
|-8-----------8---8-----------8----|----------------------------------|
|----------------------------------|-8-----------8---------------8----|

  |       |       |       |          |       |       |       |         
|----------------------------------|----------------------------------|
|----------------------------------|-------------9---9----------------|
|-8-----------8---8-----------8----|-7--------------------------------|
|----------------------------------|-----------------------------6----|

  |       |       |       |          |       |       |       |         
|----------------------------------|----------------------------------|
|----------------------------------|----------------------------------|
|-----------------7----------------|-------------7---7----------------|
|-5-----------5---------------5----|-5---------------------------9----|

  |       |       |       |          |       |       |       |         
|----------------------------------|----------------------------------|
|-------------7---7----------------|----------------------------------|
|-5--------------------------------|-----------------7----------------|
|-----------------------------6----|-5-----------5---------------5----|

  |       |       |       |          |       |       |       |         
||---------------------------------|---------------------------------||
|*------------7---7----------------|---------------------------------||
|*5--------------------------------|---------------------------------||
||----------------------------4----|-5-----------5---5-----------5---||

>1|       |       |       |          |       |       |       |         
|----------------------------------|---------------------------------||
|----------------------------------|---------------------------------*|
|-5-----------5---5-----------5----|-------------7---7-----------6---*|
|----------------------------------|-5-------------------------------||

>2|       |       |       |                
|----------------------------------|
|----------------------------------|
|----------------------------------|
|----------------------------------|


Created with TablEdit http://www.tabledit.com/



     
Добавлено: 30.08.2013
Другие материалы по этой песне:
  • Аккорды и текст

Страница создана 27.08.2013
http://primanota.ru/antonio-carlos-jobim/gentle-rain-chords.htm
Привет, Гость.
Предлагаем пройти революционный курс по гитаре.
Подарок от PrimaNota.Ru, забирай!