PrimaNota.ru - самый крупный в мире бесплатный архив песенных текстов, аккордов, табулатур и нот


Антониу Карлус Жобин - O Morro - бас-таба, видео

Регистрация Запомнить меня
Войти через:  Facebook Google Twitter Vk Yandex Mail.ru

Антониу Карлус Жобин - O Morro - бас-таба, видео

Печатать
Просмотров: 146
a.c.jobim_o morro

Basstab by Jan Bjorklund, Finland
 jani_bjorklund@yahoo.se>
You are welcome to request for basstabs!
Fingering and positions as suggested by TablEdit,
please use common sense!

TablEdited by Jan Bjorklund
Tuning : E A D G 	Time Signature: 4/4

  |               |               |               |   
             
||------------------------3-----------------2----------------------|
|*----------------5-------------------------------5----------------|
|*--------------------------------------------------------5--------|
||3----------------------------------------------------------------|

  |               |               |               |   
             
|-----------------------------------------------------------------||
|-------------------------3---------------2-----------------------*|
|-5---------------5-------------------------------5---------------*|
|---------------------------------------------------------3-------||

  |               |               |               |   
             
|-------------------------3---------------2------------------------|
|-----------------5-------------------------------5----------------|
|---------------------------------------------------------5--------|
|-3----------------------------------------------------------------|

  |               |               |               |   
             
|------------------------------------------------------------------|
|-------------------------3---------------2------------------------|
|-5---------------5-------------------------------5----------------|
|-------------------------------------------------------3----------|

  |               |               |               |   
             
|-------------------------3---------------2------------------------|
|-----------------5-------------------------------5----------------|
|---------------------------------------------------------5--------|
|-3----------------------------------------------------------------|

  |               |               |               |   
             
|------------------------------------------------------------------|
|-------------------------3---------------2------------------------|
|-5---------------5-------------------------------5----------------|
|---------------------------------------------------------3--------|

  |               |               |               |   
             
|-------------------------3-----------------2----------------------|
|-----------------5---------------------------------5--------------|
|---------------------------------------------------------5--------|
|-3----------------------------------------------------------------|

  |               |               |               |   
             
|------------------------------------------------------------------|
|-------------------------3---------------2------------------------|
|-5---------------5-------------------------------5----------------|
|---------------------------------------------------------3--------|

  |               |               |               |   
             
|-------------------------------------------------------3----------|
|---------------------------------3---------5----------------------|
|---------------------5--------------------------------------------|
|---3--------------------------------------------------------------|

  |               |               |               |   
             
|------------------------------------------------------------------|
|-5-----------3----------------------------------------------------|
|-------------------------5---------------1------------------------|
|---------------------------------------------------------3--------|

  |               |               |               |   
             
|------------------------------------------------------------------|
|------------------------------------------------------------------|
|-3---------------------------------------3------------------------|
|-------------------------3-------------------------------2--------|

  |               |               |               |   
             
|------------------------------------------------------------------|
|-------------------------------------------------3----------------|
|-------------------------3-------3--------------------------------|
|-1----------------------------------------------------------------|

  |               |               |               |   
             
|------------------------------------------------------------------|
|-------------------------3---------3------------------------------|
|-1-------------------------------------------------------1--------|
|------------------------------------------------------------------|

  |               |               |               |   
             
|------------------------------------------------------------------|
|------------------------------------------------------------------|
|---------------3---------2-------1-----------------------1--------|
|-1----------------------------------------------------------------|

  |               |               |               |   
             
|------------------------------------------------------------------|
|-2-----------------------2-------1-----------------------1--------|
|------------------------------------------------------------------|
|------------------------------------------------------------------|

  |               |               |               |   
             
|------------------------------------------------------------------|
|------------------------------------------------------------------|
|---------------------------------5---------------5----------------|
|-3---------------------3------------------------------------------|

  |               |               |               |   
             
|------------------------------------------------------------------|
|-----------------------------------------5------------------------|
|-------------------------5-------------------------------5--------|
|-3----------------------------------------------------------------|

  |               |               |               |   
             
|------------------------------------------------------------------|
|------------------------------------------------------------------|
|---------5-------5-----------------------5------------------------|
|------------------------------------------------------------------|

  |               |               |               |   
             
|------------------------------------------------------------------|
|-------------------------5---------5------------------------------|
|---3---------------------------------------------3----------------|
|------------------------------------------------------------------|

  |               |               |               |   
             
|------------------------------------------------------------------|
|-------------------------------------------------5----------------|
|-------------------------5---------------5---------------5--------|
|-3----------------------------------------------------------------|

  |               |               |               |   
             
|------------------------------------------------------------------|
|-------------------------5---------5------------------------------|
|-3-----------------------------------------------3----------------|
|---------------------------------------------------------3--------|

  |               |               |               |   
             
|------------------------------------------------------------------|
|------------------------------------------------------------------|
|-------------------------5-------5--------------------------------|
|-------------------------------------------------3----------------|

  |               |               |               |   
             
|------------------------------------------------------------------|
|-------------------------5---------5------------------------------|
|-3-----------------------------------------------3----------------|
|---------------------------------------------------------3--------|

  |               |               |               |   
             
|------------------------------------------------------------------|
|------------------------------------------------------------------|
|-------------------------5-------5---------------5----------------|
|------------------------------------------------------------------|

  |               |               |               |   
             
|------------------------------------------------------------------|
|---1--------------------------------------------------------------|
|---------------------------5---------------------4----------------|
|------------------------------------------------------------------|

  |               |               |               |   
             
|------------------------------------------------------------------|
|------------------------------------------------------------------|
|---------3---------------3---------3-------------3----------------|
|------------------------------------------------------------------|

  |               |               |               |   
             
|------------------------------------------------------------------|
|------------------------------------------------------------------|
|---------------------------------------------------------5--------|
|---3---------------------3----------------------------------------|

  |               |               |               |   
             
|------------------------------------------------------------------|
|------------------------------------------------------------------|
|-------------------------------------------1---------2---------3--|
|-3---------3-----------4---------5--------------------------------|

  |               |               |               |   
             
|------------------------------------------------------------------|
|-------------------------5-------5--------------------------------|
|-----------------------------------------------3------------------|
|---------------------------------------------------------------1--|

  |               |               |               |   
             
|------------------------------------------------------------------|
|-----------------------------------------3------------------------|
|-------------------------3-------------------------------3--------|
|------------------------------------------------------------------|

  |               |               |               |   
             
|------------------------------------------------------------------|
|-------------------------3-------3--------------------------------|
|-1-----------------------------------------------1----------------|
|------------------------------------------------------------------|

  |               |               |               |   
             
||-----------------------------------------------------------------|
|*-----------------------------------------------------------------|
|*------------------------3---2---1-----------------------1--------|
||1----------------------------------------------------------------|

  |               |               |               |   
             
|------------------------------------------------------------------|
|-2-----------------------2-------1-----------------------1--------|
|------------------------------------------------------------------|
|------------------------------------------------------------------|

  |               |               |               |   
             
|------------------------------------------------------------------|
|------------------------------------------------------------------|
|-----------------------------------5---------------5--------------|
|-3-----------------------3----------------------------------------|

  |               |               |               |   
             
|-----------------------------------------------------------------||
|-----------------------------------------5-----------------------*|
|-------------------------5-------------------------------5-------*|
|-3---------------------------------------------------------------||

  |               |               |               |   
             
|------------------------------------------------------------------|
|------------------------------------------------------------------|
|-5---------------5------------------------------------------------|
|------------------------------------------------------------------|

  |               |               |               |   
             
|---------------------------------------------------------3--------|
|---------------------------------3---------5----------------------|
|-------------------------5----------------------------------------|
|-3----------------------------------------------------------------|

  |               |               |               |   
             
|------------------------------------------------------------------|
|-5---------------3------------------------------------------------|
|-------------------------5---------------1------------------------|
|---------------------------------------------------------3--------|



Created with TablEdit http://www.tabledit.com/

     
Добавлено: 26.11.2013
Другие материалы по этой песне:
  • Аккорды и текст

Страница создана 16.09.2013
http://primanota.ru/antonio-carlos-jobim/o-morro-chords.htm
Привет, Гость.
Предлагаем пройти революционный курс по гитаре.
Подарок от PrimaNota.Ru, забирай!