PrimaNota.ru - самый крупный в мире бесплатный архив песенных текстов, аккордов, табулатур и нот


Антониу Карлус Жобин - O Grande Amor - бас-таба, видео

Регистрация Запомнить меня
Войти через:  Facebook Google Twitter Vk Yandex Mail.ru

Антониу Карлус Жобин - O Grande Amor - бас-таба, видео

Печатать
Просмотров: 307
Уроки эстрадного вокала в Санкт-Петербурге
Авторы музыки: Antônio Carlos Jobim
Авторы текста: Vinicius de Moraes
a.c.jobim_o grande amor

Basstab by Jan Bjorklund, Finland  jani_bjorklund@yahoo.se>
You are welcome to request for basstabs!
Fingering and positions as suggested by TablEdit, please use common sense!

TablEdited by Jan Bjorklund
Tuning : E A D G 	Time Signature: 4/4

  |               |               |               |                 
|------------------------------------------------------------------|
|------------------------------------------------------------------|
|------------------------------------------------------------------|
|-5-----------------------5-------0-----------------------------4--|

  |               |               |               |                 
|------------------------------------------------------------------|
|------------------------------------------------------------------|
|------------------------------------------------------------------|
|-------------------------4-------0--------------------------------|

  |               |               |               |                 
|------------------------------------------------------------------|
|------------------------------------------------------------------|
|------------------------------------------------------------------|
|-3-----------------------3---------3------------------------------|

  |               |               |               |                 
|------------------------------------------------------------------|
|------------------------------------------------------------------|
|---------------------------------3--------------------------------|
|-3-----------------------3-----------------------3----------------|

  |               |               |               |                 
|------------------------------------------------------------------|
|------------------------------------------------------------------|
|-----------------------------------6------------------------------|
|-2----------------------------------------------------------------|

  |               |               |               |                 
|------------------------------------------------------------------|
|------------------------------------------------------------------|
|-----------------------------------5------------------------------|
|-1---------------------------------------------------------1------|

  |               |               |               |                 
|------------------------------------------------------------------|
|------------------------------------------------------------------|
|---------------------------------7-----------------------7--------|
|-5----------------------------------------------------------------|

  |               |               |               |                 
|------------------------------------------------------------------|
|------------------------------------------------------------------|
|-------------------------------------------------4----------------|
|---5-----------------------------5--------------------------------|

  |               |               |               |                 
|------------------------------------------------------------------|
|------------------------------------------------------------------|
|-5----------------------------------------------------------------|
|-----------------------------------5------------------------------|

  |               |               |               |                 
|------------------------------------------------------------------|
|------------------------------------------------------------------|
|-----------------------------------5------------------------------|
|-3----------------------------------------------------------------|

  |               |               |               |                 
|------------------------------------------------------------------|
|------------------------------------------------------------------|
|-3-----------------------3----------------------------------------|
|-----------------------------------3------------------------------|

  |               |               |               |                 
|------------------------------------------------------------------|
|------------------------------------------------------------------|
|-3-----------------------3----------------------------------------|
|---------------------------------3--------------------------------|

  |               |               |               |                 
|------------------------------------------------------------------|
|------------------------------------------------------------------|
|------------------------------------------------------------------|
|---6---------------------6-------1--------------------------------|

  |               |               |               |                 
|------------------------------------------------------------------|
|------------------------------------------------------------------|
|------------------------------------------------------------------|
|-6-----------------------6-------1--------------------------------|

  |               |               |               |                 
|------------------------------------------------------------------|
|------------------------------------------------------------------|
|------------------------------------------------------------------|
|-7-----------------------7-------1--------------------------------|

  |               |               |               |                 
|------------------------------------------------------------------|
|------------------------------------------------------------------|
|------------------------------------------------------------------|
|-0-------------------------0-----0--------------------------------|

  |               |               |               |                 
|------------------------------------------------------------------|
|------------------------------------------------------------------|
|------------------------------------------------------------------|
|-5-----------------------5-------0--------------------------------|

  |               |               |               |                 
|------------------------------------------------------------------|
|------------------------------------------------------------------|
|------------------------------------------------------------------|
|-4-----------------------4-------4--------------------------------|

  |               |               |               |                 
|------------------------------------------------------------------|
|------------------------------------------------------------------|
|---------------------------------5--------------------------------|
|---3--------------------------------------------------------------|

  |               |               |               |                 
|------------------------------------------------------------------|
|------------------------------------------------------------------|
|-3----------------------------------------------------------------|
|-----------------------------------3------------------------------|

  |               |               |               |                 
|------------------------------------------------------------------|
|------------------------------------------------------------------|
|------------------------------------------------------------------|
|-2-------------------------------2--------------------------------|

  |               |               |               |                 
|------------------------------------------------------------------|
|------------------------------------------------------------------|
|------------------------------------------------------------------|
|-1---------------------------------1------------------------------|

  |               |               |               |                 
|------------------------------------------------------------------|
|------------------------------------------------------------------|
|------------------------------------------------------------------|
|-0---------------------------------5------------------------------|

  |               |               |               |                 
|------------------------------------------------------------------|
|------------------------------------------------------------------|
|-7----------------------------------------------------------------|
|---------------------------------5--------------------------------|

  |               |               |               |                 
|------------------------------------------------------------------|
|------------------------------------------------------------------|
|-5----------------------------------------------------------------|
|---------------------------------5--------------------------------|

  |               |               |               |                 
|------------------------------------------------------------------|
|------------------------------------------------------------------|
|---6--------------------------------------------------------------|
|-----------------------------------5------------------------------|

  |               |               |               |                 
|------------------------------------------------------------------|
|------------------------------------------------------------------|
|-7----------------------------------------------------------------|
|---------------------------------5--------------------------------|

  |               |               |               |                 
|------------------------------------------------------------------|
|-3----------------------------------------------------------------|
|-------------------------3----------------------------------------|
|---------------------------------1--------------------------------|

  |               |               |               |                 
|------------------------------------------------------------------|
|---------------------------------3--------------------------------|
|------------------------------------------------------------------|
|---6--------------------------------------------------------------|

  |               |               |               |                 
|------------------------------------------------------------------|
|------------------------------------------------------------------|
|-5---------------------------------7------------------------------|
|------------------------------------------------------------------|

  |               |               |               |                 
|------------------------------------------------------------------|
|------------------------------------------------------------------|
|------------------------------------------------------------------|
|-5-------------------------4-----0--------------------------------|

  |               |               |               |                 
|------------------------------------------------------------------|
|------------------------------------------------------------------|
|------------------------------------------------------------------|
|-5-------------------------------0---------------5----------------|

  |               |               |               |                 
|------------------------------------------------------------------|
|------------------------------------------------------------------|
|-5----------------------------------------------------------------|
|---------------------------------5--------------------------------|

  |               |               |               |                 
|------------------------------------------------------------------|
|------------------------------------------------------------------|
|-5----------------------------------------------------------------|
|---------------------------------5--------------------------------|

  |               |               |               |                 
|------------------------------------------------------------------|
|------------------------------------------------------------------|
|---------------------------------------------------------------7--|
|-5-------------------------------0--------------------------------|

  |               |               |               |                 
|------------------------------------------------------------------|
|------------------------------------------------------------------|
|-----------------7------------------------------------------------|
|------------------------------------------------------------------|

  |               |               |               |                 
|------------------------------------------------------------------|
|------------------------------------------------------------------|
|------------------------------------------------------------------|
|-5-----------------------5-------0-----------------------------4--|

  |               |               |               |                 
|------------------------------------------------------------------|
|------------------------------------------------------------------|
|------------------------------------------------------------------|
|-------------------------4-------0--------------------------------|

  |               |               |               |                 
|------------------------------------------------------------------|
|------------------------------------------------------------------|
|------------------------------------------------------------------|
|-3-----------------------3---------3------------------------------|

  |               |               |               |                 
|------------------------------------------------------------------|
|------------------------------------------------------------------|
|---------------------------------3--------------------------------|
|-3-----------------------3-----------------------3----------------|

  |               |               |               |                 
|------------------------------------------------------------------|
|------------------------------------------------------------------|
|-----------------------------------6------------------------------|
|-2----------------------------------------------------------------|

  |               |               |               |                 
|------------------------------------------------------------------|
|------------------------------------------------------------------|
|-----------------------------------5------------------------------|
|-1---------------------------------------------------------1------|

  |               |               |               |                 
|------------------------------------------------------------------|
|------------------------------------------------------------------|
|---------------------------------7-----------------------7--------|
|-5----------------------------------------------------------------|

  |               |               |               |                 
|------------------------------------------------------------------|
|------------------------------------------------------------------|
|-------------------------------------------------4----------------|
|---5-----------------------------5--------------------------------|

  |               |               |               |                 
|------------------------------------------------------------------|
|------------------------------------------------------------------|
|-5----------------------------------------------------------------|
|-----------------------------------5------------------------------|

  |               |               |               |                 
|------------------------------------------------------------------|
|------------------------------------------------------------------|
|-----------------------------------5------------------------------|
|-3----------------------------------------------------------------|

  |               |               |               |                 
|------------------------------------------------------------------|
|------------------------------------------------------------------|
|-3-----------------------3----------------------------------------|
|-----------------------------------3------------------------------|

  |               |               |               |                 
|------------------------------------------------------------------|
|------------------------------------------------------------------|
|-3-----------------------3----------------------------------------|
|---------------------------------3--------------------------------|

  |               |               |               |                 
|------------------------------------------------------------------|
|------------------------------------------------------------------|
|------------------------------------------------------------------|
|---6---------------------6-------1--------------------------------|

  |               |               |               |                 
|------------------------------------------------------------------|
|------------------------------------------------------------------|
|------------------------------------------------------------------|
|-6-----------------------6-------1--------------------------------|

  |               |               |               |                 
|------------------------------------------------------------------|
|------------------------------------------------------------------|
|------------------------------------------------------------------|
|-7-----------------------7-------1--------------------------------|

  |               |               |               |                 
|------------------------------------------------------------------|
|------------------------------------------------------------------|
|------------------------------------------------------------------|
|-0-------------------------0-----0--------------------------------|

  |               |               |               |                 
|------------------------------------------------------------------|
|------------------------------------------------------------------|
|------------------------------------------------------------------|
|-5-----------------------5-------0--------------------------------|

  |               |               |               |                 
|------------------------------------------------------------------|
|------------------------------------------------------------------|
|------------------------------------------------------------------|
|-4-----------------------4-------4--------------------------------|

  |               |               |               |                 
|------------------------------------------------------------------|
|------------------------------------------------------------------|
|---------------------------------5--------------------------------|
|---3--------------------------------------------------------------|

  |               |               |               |                 
|------------------------------------------------------------------|
|------------------------------------------------------------------|
|-3----------------------------------------------------------------|
|-----------------------------------3------------------------------|

  |               |               |               |                 
|------------------------------------------------------------------|
|------------------------------------------------------------------|
|------------------------------------------------------------------|
|-2-------------------------------2--------------------------------|

  |               |               |               |                 
|------------------------------------------------------------------|
|------------------------------------------------------------------|
|------------------------------------------------------------------|
|-1---------------------------------1------------------------------|

  |               |               |               |                 
|------------------------------------------------------------------|
|------------------------------------------------------------------|
|------------------------------------------------------------------|
|-0---------------------------------5------------------------------|

  |               |               |               |                 
|------------------------------------------------------------------|
|------------------------------------------------------------------|
|-7----------------------------------------------------------------|
|---------------------------------5--------------------------------|

  |               |               |               |                 
|------------------------------------------------------------------|
|------------------------------------------------------------------|
|-5----------------------------------------------------------------|
|---------------------------------5--------------------------------|

  |               |               |               |                 
|------------------------------------------------------------------|
|------------------------------------------------------------------|
|---6--------------------------------------------------------------|
|-----------------------------------5------------------------------|

  |               |               |               |                 
|------------------------------------------------------------------|
|------------------------------------------------------------------|
|-7----------------------------------------------------------------|
|---------------------------------5--------------------------------|

  |               |               |               |                 
|------------------------------------------------------------------|
|-3----------------------------------------------------------------|
|-------------------------3----------------------------------------|
|---------------------------------1--------------------------------|

  |               |               |               |                 
|------------------------------------------------------------------|
|---------------------------------3--------------------------------|
|------------------------------------------------------------------|
|---6--------------------------------------------------------------|

  |               |               |               |                 
|------------------------------------------------------------------|
|------------------------------------------------------------------|
|-5---------------------------------7------------------------------|
|------------------------------------------------------------------|

  |               |               |               |                 
|------------------------------------------------------------------|
|------------------------------------------------------------------|
|------------------------------------------------------------------|
|-5-------------------------4-----0--------------------------------|

  |               |               |               |                 
|------------------------------------------------------------------|
|------------------------------------------------------------------|
|------------------------------------------------------------------|
|-5-------------------------------0---------------5----------------|

  |               |               |               |                 
|------------------------------------------------------------------|
|------------------------------------------------------------------|
|-5----------------------------------------------------------------|
|---------------------------------5--------------------------------|

  |               |               |               |                 
|------------------------------------------------------------------|
|------------------------------------------------------------------|
|-5----------------------------------------------------------------|
|---------------------------------5--------------------------------|

  |               |               |               |                 
|------------------------------------------------------------------|
|------------------------------------------------------------------|
|---------------------------------------------------------------7--|
|-5-------------------------------0--------------------------------|

  |               |               |               |                 
|------------------------------------------------------------------|
|------------------------------------------------------------------|
|-----------------7------------------------------------------------|
|---------------------------------------------------------------5--|


Created with TablEdit http://www.tabledit.com/




     
Добавлено: 11.10.2013
Другие материалы по этой песне:
  • Аккорды и текст

Страница создана 08.10.2013
http://primanota.ru/antonio-carlos-jobim/o-grande-amor-chords.htm
Привет, Гость.
Предлагаем пройти революционный курс по гитаре.
Подарок от PrimaNota.Ru, забирай!