PrimaNota.ru - самый крупный в мире бесплатный архив песенных текстов, аккордов, табулатур и нот


Антониу Карлус Жобин - Wawe - бас-таба, видео

Регистрация Запомнить меня
Войти через:  Facebook Google Twitter Vk Yandex Mail.ru

Антониу Карлус Жобин - Wawe - бас-таба, видео

Печатать
Просмотров: 135
a.c.jobim_wave

Basstab by Jan Bjorklund, Finland  jani_bjorklund@yahoo.se>
You are welcome to request for basstabs!
Fingering and positions as suggested by TablEdit, please use common sense!

TablEdited by Jan Bjorklund
Tuning : E A D G 	Time Signature: 4/4
                                                                       
                                                                     
  |       |       |       |          |       |       |       |         
|-------3-3-------------3-3--------|-------3-3-------------3-3--------|
|-3-------------3-3-------------3--|-3-------------3-3----------------|
|----------------------------------|----------------------------------|
|----------------------------------|----------------------------------|

  |       |       |       |          |       |       |       |         
|-------5-5-------6-------------6--|-5-----------5---------5-5--------|
|-3-------------3-------6-6--------|-------5-5-----5-3-------------3--|
|----------------------------------|----------------------------------|
|----------------------------------|----------------------------------|

  |       |       |       |          |       |       |       |         
|-3-------------3-3-----------3----|----------------------------------|
|-------3-3-------------3-3-----3--|-7-----------7---------7-7--------|
|----------------------------------|-------7-7-------5-------------5--|
|----------------------------------|----------------------------------|

  |       |       |       |          |       |       |       |         
|----------------------------------|-------3-3-------------3-3--------|
|-5-----5-5------------------------|-3-------------3-3-------------3--|
|-------------5---4-----4-3-----3--|----------------------------------|
|----------------------------------|----------------------------------|

  |       |       |       |          |       |       |       |         
|-------5-5------------------------|-----------------------5-5--------|
|-3-------------3------------------|-------------5---3-----------3----|
|-----------------4-----4-4-----4--|-3-----3-3------------------------|
|----------------------------------|----------------------------------|

  |       |       |       |          |       |       |       |         
|-3-----------3---3-----------3----|----------------------------------|
|-------3-3-----3-------3-3--------|-7-----------7---------------7----|
|----------------------------------|-------7-7-----7-5-----5-5--------|
|----------------------------------|----------------------------------|

  |       |       |       |          |       |       |       |         
|----------------------------------|-------3-3-------------3-3--------|
|-5-----5-5------------------------|-3-------------3-3----------------|
|-------------5---4-----4-3-----3--|----------------------------------|
|----------------------------------|----------------------------------|

  |       |       |       |          |       |       |       |         
|-3-------------3-6-----6-6-----6--|-5-----5-5-------5-----5-5-----5--|
|-------3-3------------------------|---------------5-------------5----|
|----------------------------------|----------------------------------|
|----------------------------------|----------------------------------|

  |       |       |       |          |       |       |       |         
|-6-----6-6-----6-4-----4-4-----4--|-3-----3-3-----3------------------|
|----------------------------------|----------------------------------|
|----------------------------------|-----------------3-----3-3---3----|
|----------------------------------|----------------------------------|

  |       |       |       |          |       |       |       |         
|-------5-5-------6-------------6--|-5-----------5---------5-5--------|
|-3-------------3-------6-6--------|-------5-5-----5-3-------------3--|
|----------------------------------|----------------------------------|
|----------------------------------|----------------------------------|

  |       |       |       |          |       |       |       |         
|-3-------------3-3-----------3----|----------------------------------|
|-------3-3-------------3-3-----3--|-7-----------7---------7-7--------|
|----------------------------------|-------7-7-------5-------------5--|
|----------------------------------|----------------------------------|

  |       |       |       |          |       |       |       |         
|----------------------------------|-------3-3-------------3-3--------|
|-5-----5-5------------------------|-3-------------3-3-------------3--|
|-------------5---4-----4-3-----3--|----------------------------------|
|----------------------------------|----------------------------------|

  |       |       |       |          |       |       |       |         
|-------5-5-------6-------------6--|-5-----------5---------5-5--------|
|-3-------------3-------6-6--------|-------5-5-----5-3-------------3--|
|----------------------------------|----------------------------------|
|----------------------------------|----------------------------------|

  |       |       |       |          |       |       |       |         
|-3-------------3-3-----------3----|----------------------------------|
|-------3-3-------------3-3-----3--|-7-----------7---------7-7--------|
|----------------------------------|-------7-7-------5-------------5--|
|----------------------------------|----------------------------------|

  |       |       |       |          |       |       |       |         
|----------------------------------|-------3-3-------------3-3--------|
|-5-----5-5------------------------|-3-------------3-3-------------3--|
|-------------5---4-----4-3-----3--|----------------------------------|
|----------------------------------|----------------------------------|

  |       |       |       |          |       |       |       |         
|-------5-5------------------------|-----------------------5-5--------|
|-3-------------3------------------|-------------5---3-----------3----|
|-----------------4-----4-4-----4--|-3-----3-3------------------------|
|----------------------------------|----------------------------------|

  |       |       |       |          |       |       |       |         
|-3-----------3---3-----------3----|----------------------------------|
|-------3-3-----3-------3-3--------|-7-----------7---------------7----|
|----------------------------------|-------7-7-----7-5-----5-5--------|
|----------------------------------|----------------------------------|

  |       |       |       |          |       |       |       |         
|----------------------------------|-------3-3-------------3-3--------|
|-5-----5-5------------------------|-3-------------3-3----------------|
|-------------5---4-----4-3-----3--|----------------------------------|
|----------------------------------|----------------------------------|

  |       |       |       |          |       |       |       |         
|-3-------------3-6-----6-6-----6--|-5-----5-5-------5-----5-5-----5--|
|-------3-3------------------------|---------------5-------------5----|
|----------------------------------|----------------------------------|
|----------------------------------|----------------------------------|

  |       |       |       |          |       |       |       |         
|-6-----6-6-----6-4-----4-4-----4--|-3-----3-3-----3------------------|
|----------------------------------|----------------------------------|
|----------------------------------|-----------------3-----3-3---3----|
|----------------------------------|----------------------------------|

  |       |       |       |          |       |       |       |         
|-------5-5-------6-------------6--|-5-----------5---------5-5--------|
|-3-------------3-------6-6--------|-------5-5-----5-3-------------3--|
|----------------------------------|----------------------------------|
|----------------------------------|----------------------------------|

  |       |       |       |          |       |       |       |         
|-3-------------3-3-----------3----|----------------------------------|
|-------3-3-------------3-3-----3--|-7-----------7---------7-7--------|
|----------------------------------|-------7-7-------5-------------5--|
|----------------------------------|----------------------------------|

  |       |       |       |          |       |       |       |         
|----------------------------------|-------3-3-------------3-3--------|
|-5-----5-5------------------------|-3-------------3-3-------------3--|
|-------------5---4-----4-3-----3--|----------------------------------|
|----------------------------------|----------------------------------|

  |       |       |       |          |       |       |       |         
|-------3-3-------------3-3--------|-------3-3-------------3-3--------|
|-3-------------3-3-------------3--|-3-------------3-3-------------3--|
|----------------------------------|----------------------------------|
|----------------------------------|----------------------------------|

  |       |       |       |          |       |       |       |         
|-------3-3-------------3-3--------|-------3-3-------------3-3--------|
|-3-------------3-3-------------3--|-3-------------3-3----------------|
|----------------------------------|----------------------------------|
|----------------------------------|----------------------------------|

 

Created with TablEdit http://www.tabledit.com/



     
Добавлено: 04.10.2013
Другие материалы по этой песне:
  • Аккорды и текст

Страница создана 04.10.2013
http://primanota.ru/antonio-carlos-jobim/wawe-chords.htm
Привет, Гость.
Предлагаем пройти революционный курс по гитаре.
Подарок от PrimaNota.Ru, забирай!